Tabsy
tabsy.gr, συγχορδίες για το τραγούδι

Μάρκος και Άννα

Ερμηνευτής: Αδελφοι Κατσιμιχα

Μουσική /Στίχοι: Dalla Lucio /Αδελφοι Κατσιμιχα

[Εισαγωγή]
        G                         Am
e|------------------------------------------------------------|
B|---------0-1----1-0---0-1---1-------1-3---3-1---1-3---3-----|
G|--------0---0------0-----0---------2---2-----2-----2--------|
D|-------0-----0------0-----0-------2-----2-----2-----2-------|
A|--------------------------------0---------------------------|
E|-----3------------------------------------------------------|
 
      C                 D
e|---------------------------------------|
B|--------1-3---1-----------1-3-1---3----|
G|-------0---0-------------2-----2-------|
D|------2-----2----------0--------0------|
A|----3----------------------------------|
E|---------------------------------------|
 
G                         Am
Άννα όπως τόσες άλλες, Άννα όμορφη Άννα
C                       D                 G
Άννα με το βλέμμα που σβήνει, μυγιάγγιχτη Άννα
         Gm  F#m    Em                        C
Θα φύγει κάποτε θα φύγει. Της συνοικίας το αστέρι
  D                                              G     G7   D
Η Άννα με τις φιλενάδες κλείνει τα μάτια και το ξέρει
 
   G                                           Am
Ο Μάρκος μες στα ρούχα του που πλέει, ο Μάρκος μια καρδιά που καίει
C                  D                   G
Με τη μάνα και την αδερφή του, και την άχαρη ζωή του
           Gm   F#m    Em                             C
Μα όταν νυχτώνουνε οι δρόμοι, τρέχει να βρει τη συμμορία
D                                            G
Ο Μάρκος με τους κολλητούς, ο Μάρκος τσαμπουκάς στη συνοικία
 
D                                        Am
Το φεγγάρι μια μπάλα στ' ουρανού το μπιλιάρδο
D                                       Am
Και τ' αστέρια αμέτρητα στου φλίπερ το τζάμι
   C              D        C            D
Ο Μάρκος σ' ένα μπαρ, δεν ξέρει που να πάει
        C                                 (D)       G
Ένα ξεκλείδωτο γκάζι βουτάει και για την πόλη τραβάει
 
G                               Am
Σαββάτο η Άννα πάει για χορό, ο Μάρκος στην πίστα καλπάζει
C                         D                 G
Το χορευτάδικο είναι φριχτό, μια αδερφή με πάθος τον κοιτάζει
            Gm     F#m     Em                                    C
Μα πες μου εσύ που όλα τα ξέρεις, ποιος είναι ο δρόμος για τ' αστέρια
D                                           G
Κοιτάζονται, μιλάνε, γελάνε, μιλάνε με τα χέρια και αρχίζουν να πετάνε
    Am                 C                  D                 G
Αγκαλιά μες στη ζαλάδα. Σαν κωμωδία αμερικάνικη πέρασε και τούτη η βδομάδα
      Gm  F#m    Em                           C
Μα η Αμέρικα μακραίνει. Στην άλλη όχθη της σελήνης
    D                                                   G
Κυνηγώντας τους ζυγώνει μ' ένα γέλιο που το αίμα τους παγώνει
 
[Riff] 2x
    G
e|--15--12----------------------------------------------------|
B|----------15--12--------------12----------------------------|
G|------------------14----12h14---14h12--12-------------------|
D|------------------------------------------------------------|
A|------------------------------------------------------------|
E|------------------------------------------------------------|
 
D                                      Am
Το φεγγάρι απλώνει, τους πιάνει απ' τον ώμο
D                                    Am
Μ' ένα μάτσο αστέρια κατεβαίνει στο δρόμο
G          D           C       D   Riff
Άρρωστο φεγγάρι, στο δρόμο χύνεται
       C                               D      G       Riff
Ένα σκυλί που περνάει, γαβγίζει, και ξε-κου-μπί-ζεται
 
  G                     Am
Η Άννα θέλει να πεθάνει. Ο Μάρκος ονειρεύεται άλλα μέρη
C                       D              G
Κάποιος τους είδε να γυρίζουν χέρι με χέρι
 
Κιθάρα, συγχορδίες για το τραγούδι

Μάρκος και Άννα

 
20 προβολές
Δυσκολία: μέτρια
Καποτάστο: 0
πάνω από 1 χρόνο πριν από koskleas
[Εισαγωγή]
        G                         Am
e|------------------------------------------------------------|
B|---------0-1----1-0---0-1---1-------1-3---3-1---1-3---3-----|
G|--------0---0------0-----0---------2---2-----2-----2--------|
D|-------0-----0------0-----0-------2-----2-----2-----2-------|
A|--------------------------------0---------------------------|
E|-----3------------------------------------------------------|
 
      C                 D
e|---------------------------------------|
B|--------1-3---1-----------1-3-1---3----|
G|-------0---0-------------2-----2-------|
D|------2-----2----------0--------0------|
A|----3----------------------------------|
E|---------------------------------------|
 
G                         Am
Άννα όπως τόσες άλλες, Άννα όμορφη Άννα
C                       D                 G
Άννα με το βλέμμα που σβήνει, μυγιάγγιχτη Άννα
         Gm  F#m    Em                        C
Θα φύγει κάποτε θα φύγει. Της συνοικίας το αστέρι
  D                                              G     G7   D
Η Άννα με τις φιλενάδες κλείνει τα μάτια και το ξέρει
 
   G                                           Am
Ο Μάρκος μες στα ρούχα του που πλέει, ο Μάρκος μια καρδιά που καίει
C                  D                   G
Με τη μάνα και την αδερφή του, και την άχαρη ζωή του
           Gm   F#m    Em                             C
Μα όταν νυχτώνουνε οι δρόμοι, τρέχει να βρει τη συμμορία
D                                            G
Ο Μάρκος με τους κολλητούς, ο Μάρκος τσαμπουκάς στη συνοικία
 
D                                        Am
Το φεγγάρι μια μπάλα στ' ουρανού το μπιλιάρδο
D                                       Am
Και τ' αστέρια αμέτρητα στου φλίπερ το τζάμι
   C              D        C            D
Ο Μάρκος σ' ένα μπαρ, δεν ξέρει που να πάει
        C                                 (D)       G
Ένα ξεκλείδωτο γκάζι βουτάει και για την πόλη τραβάει
 
G                               Am
Σαββάτο η Άννα πάει για χορό, ο Μάρκος στην πίστα καλπάζει
C                         D                 G
Το χορευτάδικο είναι φριχτό, μια αδερφή με πάθος τον κοιτάζει
            Gm     F#m     Em                                    C
Μα πες μου εσύ που όλα τα ξέρεις, ποιος είναι ο δρόμος για τ' αστέρια
D                                           G
Κοιτάζονται, μιλάνε, γελάνε, μιλάνε με τα χέρια και αρχίζουν να πετάνε
    Am                 C                  D                 G
Αγκαλιά μες στη ζαλάδα. Σαν κωμωδία αμερικάνικη πέρασε και τούτη η βδομάδα
      Gm  F#m    Em                           C
Μα η Αμέρικα μακραίνει. Στην άλλη όχθη της σελήνης
    D                                                   G
Κυνηγώντας τους ζυγώνει μ' ένα γέλιο που το αίμα τους παγώνει
 
[Riff] 2x
    G
e|--15--12----------------------------------------------------|
B|----------15--12--------------12----------------------------|
G|------------------14----12h14---14h12--12-------------------|
D|------------------------------------------------------------|
A|------------------------------------------------------------|
E|------------------------------------------------------------|
 
D                                      Am
Το φεγγάρι απλώνει, τους πιάνει απ' τον ώμο
D                                    Am
Μ' ένα μάτσο αστέρια κατεβαίνει στο δρόμο
G          D           C       D   Riff
Άρρωστο φεγγάρι, στο δρόμο χύνεται
       C                               D      G       Riff
Ένα σκυλί που περνάει, γαβγίζει, και ξε-κου-μπί-ζεται
 
  G                     Am
Η Άννα θέλει να πεθάνει. Ο Μάρκος ονειρεύεται άλλα μέρη
C                       D              G
Κάποιος τους είδε να γυρίζουν χέρι με χέρι
 

Πρόσθεσε ένα σχόλιο

Πληροφορίες

Πρόσθεσε και εσύ συγχορδίες στην βιβλιοθήκη του Tabsy

ΔΗΜΟΣΙΕΥΣΗ