Tabsy
tabsy.gr, συγχορδίες για το τραγούδι

Όμορφη μέρα

Ερμηνευτής: Αδελφοι Κατσιμιχα

Μουσική /Στίχοι: Αδελφοι Κατσιμιχα /Αδελφοι Κατσιμιχα

Capo: 1ο τάστο

Capo: 1
 
[Εισαγωγή]
         Em     D      G
e|--7-5--0--3-----5------3-3-|
b|------------3-3----3-3-----|
 
Εισαγωγή   ] 3x
 
G         C   G
  Όμορφη μέρα-α
            C      G   Dm
μες τη δροσιά σου-ου
C                      Dm
  χαμογελούν τα λόγια μου
C                         G     C
  η αγάπη παίρνει τα τραγούδια
 
        F                             G            F              G
e|----1-1--0--------1-1--0-----------------------------------------
b|--1--------3-1--1--------3-1----5-3-3--1-0---------1-1------5-3-3
g|------------------------------2------------0-4-2-2-----2--2------
 
             F           C               G   F           G
e---------------------------------------------------------|
b--1-0-----------------1-1------1----5-3-3---1-------5-3-3|
g------0-4-2-2-------2------2-2----2------------2--2------|
d---------------3--3--------------------------------------|
 
C         G   C   G
  Όμορφη μέ-ε-ε-ε-ερα
C             G   C   G
  μες τη δροσιά-α-α-α-α σου
C         G   C   G
  Όμορφη μέ-ε-ε-ε-ερα
C             G   C   G
  μες τη δροσιά-α-α-α-α σου
   Em        C      G
ξεχάστηκα ξεχάστηκα-α
 
Εισαγωγή   ] 4x
Κιθάρα, συγχορδίες για το τραγούδι

Όμορφη μέρα

 
18 προβολές
Δυσκολία: μέτρια
Καποτάστο: 1
11 μήνες πριν από eysebfth
Capo: 1
 
[Εισαγωγή]
         Em     D      G
e|--7-5--0--3-----5------3-3-|
b|------------3-3----3-3-----|
 
Εισαγωγή   ] 3x
 
G         C   G
  Όμορφη μέρα-α
            C      G   Dm
μες τη δροσιά σου-ου
C                      Dm
  χαμογελούν τα λόγια μου
C                         G     C
  η αγάπη παίρνει τα τραγούδια
 
        F                             G            F              G
e|----1-1--0--------1-1--0-----------------------------------------
b|--1--------3-1--1--------3-1----5-3-3--1-0---------1-1------5-3-3
g|------------------------------2------------0-4-2-2-----2--2------
 
             F           C               G   F           G
e---------------------------------------------------------|
b--1-0-----------------1-1------1----5-3-3---1-------5-3-3|
g------0-4-2-2-------2------2-2----2------------2--2------|
d---------------3--3--------------------------------------|
 
C         G   C   G
  Όμορφη μέ-ε-ε-ε-ερα
C             G   C   G
  μες τη δροσιά-α-α-α-α σου
C         G   C   G
  Όμορφη μέ-ε-ε-ε-ερα
C             G   C   G
  μες τη δροσιά-α-α-α-α σου
   Em        C      G
ξεχάστηκα ξεχάστηκα-α
 
Εισαγωγή   ] 4x

Πρόσθεσε ένα σχόλιο

Πληροφορίες

Πρόσθεσε και εσύ συγχορδίες στην βιβλιοθήκη του Tabsy

ΔΗΜΟΣΙΕΥΣΗ