Tabsy
tabsy.gr, συγχορδίες για το τραγούδι

Καλά που έγινα σπουδαίος και τρανός

Ερμηνευτής: Αγγελακας Γιαννης

Μουσική /Στίχοι: Αγγελακας Γιαννης /Αγγελακας Γιαννης

Riff   ] 2x
 
Bm
Καλά που έγινα σπουδαίος και τρανός
Κι ήταν ο κύριος κι αυτός καλός μαζί μου
Em
Και δεν κατάντησα πρόσφυγα ναυαγός         | 2x
Bm
Να παίζω στα χαμένα κάθε μέρα τη ζωή μου   | 2x
 
Riff   ] 2x
 
Bm
Καλά που βγήκα φρόνιμος, υπάκουος, σκυφτός
Κι έχω οικογένεια θρησκεία και πατρίδα
Em
Και δεν κατάντησα ρεμάλι νηστικός                | 2x
Bm
Να κλαίω σαν ποντικάκι απελπισμένο στην παγίδα   | 2x
 
Riff   ] 2x
 
* Riff
  Bm
e:--10-10-9-8-7---7--10-10-9-8-7-7-7---
B:--------------7----------------------   ] 2x
  Em
e:--11-11-11-11-11-11-11-11-11-11-11-11-11-11-11
B:----------------------------------------------   ] 2x
 
Em
e:---------------------------
B:---------------------------
G:---------------------------
D:----3-3-3--0----3-3-3--0---
A:----2-2-2-------2-2-2------
E:--0-----------0------------
 
 
Κιθάρα, συγχορδίες για το τραγούδι

Καλά που έγινα σπουδαίος και τρανός

 
7 προβολές
Δυσκολία: μέτρια
Καποτάστο: 0
περίπου 1 χρόνο πριν από kmenadhs
Riff   ] 2x
 
Bm
Καλά που έγινα σπουδαίος και τρανός
Κι ήταν ο κύριος κι αυτός καλός μαζί μου
Em
Και δεν κατάντησα πρόσφυγα ναυαγός         | 2x
Bm
Να παίζω στα χαμένα κάθε μέρα τη ζωή μου   | 2x
 
Riff   ] 2x
 
Bm
Καλά που βγήκα φρόνιμος, υπάκουος, σκυφτός
Κι έχω οικογένεια θρησκεία και πατρίδα
Em
Και δεν κατάντησα ρεμάλι νηστικός                | 2x
Bm
Να κλαίω σαν ποντικάκι απελπισμένο στην παγίδα   | 2x
 
Riff   ] 2x
 
* Riff
  Bm
e:--10-10-9-8-7---7--10-10-9-8-7-7-7---
B:--------------7----------------------   ] 2x
  Em
e:--11-11-11-11-11-11-11-11-11-11-11-11-11-11-11
B:----------------------------------------------   ] 2x
 
Em
e:---------------------------
B:---------------------------
G:---------------------------
D:----3-3-3--0----3-3-3--0---
A:----2-2-2-------2-2-2------
E:--0-----------0------------
 
 

Πρόσθεσε ένα σχόλιο

Πληροφορίες

Πρόσθεσε και εσύ συγχορδίες στην βιβλιοθήκη του Tabsy

ΔΗΜΟΣΙΕΥΣΗ