Tabsy
tabsy.gr, συγχορδίες για το τραγούδι

Μετρώντας μέρες

Ερμηνευτής: Βαλια Καλντα

Μουσική /Στίχοι: Βαλια Καλντα /Βαλια Καλντα

[Riff]

   Em                                   D
e|-----------------------------0--------2222222222----------------------
B|-------------------------0-----0------3333333333----------------------
G|---------------7-7-5-------5-----5----2222222222----------------------
D|-22222222------9-9-7---7----------------------------5-5-5-4-0---------
A|-22222222-----------------------------------------------------5-4-0---
E|----------------------------------------------------------------------
Κιθάρα, συγχορδίες για το τραγούδι

Μετρώντας μέρες

 
9 προβολές
Δυσκολία: μέτρια
Καποτάστο: 0
πάνω από 1 χρόνο πριν από basilegrh
[Riff]

   Em                                   D
e|-----------------------------0--------2222222222----------------------
B|-------------------------0-----0------3333333333----------------------
G|---------------7-7-5-------5-----5----2222222222----------------------
D|-22222222------9-9-7---7----------------------------5-5-5-4-0---------
A|-22222222-----------------------------------------------------5-4-0---
E|----------------------------------------------------------------------

Πρόσθεσε ένα σχόλιο

Πληροφορίες

Πρόσθεσε και εσύ συγχορδίες στην βιβλιοθήκη του Tabsy

ΔΗΜΟΣΙΕΥΣΗ