Κιθάρα, συγχορδίες για το τραγούδι

Άμα δεις τα παιδιά

 
30 προβολές
Δυσκολία: μέτρια
Καποτάστο: 0
9 μήνες πριν από eysebfth
[Μελωδία ανά συγχορδία]
   Am         F          G       Am         Em
|---------|---------|---------|---------|---------|---------|
|---------|---------|---------|---------|---------|---------|
|------2--|------2--|------2--|------2--|-------0-|------0--|
|----2----|----3----|----0----|----2----|-----2---|----2----|
|--0------|---------|---------|--0------|---------|--3------|
|---------|--1------|--3------|---------|---0-----|---------|
 
[Εισαγωγή]
e|-5-7-8---10--8-7-------------5-------------------------------------|
B|------------------8---5-6--8---8--5-------5-6-5--------------------|
G|-------------------------------------5-7---------5----2-4-5-7--5---|
D|-------------------------------------------------------------------|
A|-------------------------------------------------------------------|
E|-------------------------------------------------------------------|
 
e|-5-7-8---10--8-7-------------5------------------------5-7-8-7---5--|
B|------------------8---5-6--8---8--5-------5-6-5--------------------|
G|-------------------------------------5-7---------5-----------------|
D|-------------------------------------------------------------------|
A|-------------------------------------------------------------------|
E|-------------------------------------------------------------------|

[Εισαγωγή] x4
Am F G Am

[Κουπλέ]
      Am         F  G         Am
Άμα δεις τα παιδιά πες ένα γεια
        F          G     Am
πριν αρχίσουν τελειώσανε όλα
       F        G   Em         Am
Δε θα ψάξει κανείς ούτε οι γονείς
    F          G       Am  F G Am
εγώ ήρθα και φεύγω αφανής
 
[Κουπλέ]
     Am          F  G        Am
Άμα δεις τα παιδιά πες ένα γεια
         F          G        Am
γιατί ο κόσμος δεν ήταν για μένα
      F           G  Em        Am
Ήταν πόρτες κλειστές και δικαστές
[Pre Chorus]
       F      G          C    Dm
ήταν κρύο βροχή μια σκληρή εποχή
        C            Dm    Em
που κανείς τους δεν είχε ψυχή

[Ρεφραίν]
      C                      G
Άμα δεις τα παιδιά πες τους μόνο ένα γεια
     Dm               Am
από κάποιον που ήτανε μόνος
      C                   G
Είχε κάτι να πει μα σ' αυτή τη σιωπή
      F           G          Am   F G Am
δεν υπήρξε γι' αυτόν λίγος χρόνος

[Εισαγωγή] x2
Am F G Am

[Κουπλέ] 
      Am         F  G         Dm
Άμα δεις τα παιδιά πες ένα γεια
     F        G      Am
από μένα και μην εξηγήσεις
        F       G    Em     Am
Μια κουβέρτα ψιλή σ' ένα κελί
          F       G         Am F G Am
Που το κλείδωσαν τόσοι πολλοί

[Κουπλέ]
      Am         F  G         Am
Άμα δεις τα παιδιά πες ένα γεια
     F           G        Am
σε αγάπες που μ' έχουν ξεχάσει
      F          G       Em       Am
Είναι άγριος καιρός και είμαι μικρός

[Pre Chorus]
     F        G         C        Dm
έχω ζήσει πολλά και η ζωή μου κυλά
       C       Dm        Em
με το θάνατο που μου πουλά
 
[Ρεφραίν]
      C                      G
Άμα δεις τα παιδιά πες τους μόνο ένα γεια
     Dm               Am
από κάποιον που ήτανε μόνος
      C                   G
Είχε κάτι να πει μα σ' αυτή τη σιωπή
      F           G          Am 
δεν υπήρξε γι' αυτόν λίγος χρόνος
      F           G          Am   
δεν υπήρξε γι' αυτόν λίγος χρόνος
 
[Pre Solo]
   Dm
e|----------------------------|
B|----------------------------|
G|------7------7------7-----7-|
D|----7------7------7------7--|
A|--5------5------5------5----|
E|----------------------------|
 
[Solo - Συγχορδίες]
   Am         F           G         Am
e|--------------------------------------------|
B|--------------------------------------------|
G|--------------------------------------------|
D|--7---7-7----3---3-3----5---5-5----7---7-7--|
A|--7---7-7----3---3-3----5---5-5----7---7-7--|
E|--5---5-5----1---1-1----3---3-3----5---5-5--|

[Ρεφραίν]
      C                        G
Άμα δεις τα παιδιά,  πες τους μόνο ένα γεια
     Dm                Am
από κάποιον που ήτανε μόνος
      C                     G
είχε κάτι να πει,  μα σ' αυτή τη σιωπή
      F           G          Am
δεν υπήρξε γι' αυτόν λίγος χρόνος
      F           G          Am    F G Am
δεν υπήρξε γι' αυτόν λίγος χρόνος

Πρόσθεσε ένα σχόλιο

Πληροφορίες

Πρόσθεσε και εσύ συγχορδίες στην βιβλιοθήκη του Tabsy

ΔΗΜΟΣΙΕΥΣΗ