Tabsy
tabsy.gr, συγχορδίες για το τραγούδι

Επικίνδυνα Αγαπάς

Ερμηνευτής: Βαρδης Γιαννης

Μουσική /Στίχοι: Βαρδης Αντωνης /Γιαννοπουλος Βασιλης

G#m E       F#        G#m
Ένοχος στα μάτια σου εγώ
G#m E       F#     G#m    Riff
τίποτα δεν άφησες εδώ
E                     F#                   G#m  Riff
φοβάμαι να σε ψάξω κρύβεις στο βλέμμα τη φωτιά
E                     F#                   G#m  Riff
μια πόλη που κοιμάται είσαι μένα τώρα πιά
 
E
Έχεις καταστρέψει τη λογική μου
F#
είσαι και ζωή και φυλακή μου
G#m
κάνεις το όνειρο μου στάχτη και με πετάς
E
μέρα με τη μέρα πρόσωπα αλλάζεις
F#
σε ανακαλύπτω και με τρομάζεις
G#m
παίζεις με χαρτιά στημένα και μου τη σπας
 
G#m           E F#                   G#m
Επικίνδυνα αγαπάς καταστρέφεις όπου πας   Riff2
 
G#m           E F#                   G#m
Επικίνδυνα αγαπάς δε σε νοιάζει πια για μας   Riff3
 
Ένοχος στα μάτια σου εγώ   Riff
χάσαμε το νόημα και οι δυο   Riff
φοβάμαι να σε ψάξω όπου σε βρίσκω με πονάς   Riff
ό γύρος του θριάμβου έχει τελειώσει πια για μας   Riff
 
Έχεις καταστρέψει τη λογική μου
είσαι και ζωή και φυλακή μου
κάνεις το όνειρο μου στάχτη και με πετάς
μέρα με τη μέρα πρόσωπα αλλάζεις
σε ανακαλύπτω και με τρομάζεις
παίζεις με χαρτιά στημένα και μου τη σπας
 
Επικίνδυνα αγαπάς καταστρέφεις όπου πας
Επικίνδυνα αγαπάς δε σε νοιάζει πια για μας
Επικίνδυνα αγαπάς καταστρέφεις όπου πας
Επικίνδυνα αγαπάς δε σε νοιάζει πια για μας
 
Riff
e---------------------------------------
b---------------------------------------
g--------------6-7-6-----6--------------
d----------6-6--------9-----7-----------
a---------------------------------------
E---------------------------------------
 
Riff2
e-----------------------------------------
b-----------------------------------------
g----------6h7p6-6-7-6-4-6-4--------------
d-----------------------------------------
a-----------------------------------------
E-----------------------------------------
 
Riff3
e--7---7-----7-6--6-7-9--7-6-----7-7--7-6--6-7-9
b----9---9-------------------9----9--9----------
g---------------------------------------X2------
d-----------------------------------------------
a-----------------------------------------------
E-----------------------------------------------
 
Κιθάρα, συγχορδίες για το τραγούδι

Επικίνδυνα Αγαπάς

 
6 προβολές
Δυσκολία: μέτρια
Καποτάστο: 0
πάνω από 1 χρόνο πριν από magda99
G#m E       F#        G#m
Ένοχος στα μάτια σου εγώ
G#m E       F#     G#m    Riff
τίποτα δεν άφησες εδώ
E                     F#                   G#m  Riff
φοβάμαι να σε ψάξω κρύβεις στο βλέμμα τη φωτιά
E                     F#                   G#m  Riff
μια πόλη που κοιμάται είσαι μένα τώρα πιά
 
E
Έχεις καταστρέψει τη λογική μου
F#
είσαι και ζωή και φυλακή μου
G#m
κάνεις το όνειρο μου στάχτη και με πετάς
E
μέρα με τη μέρα πρόσωπα αλλάζεις
F#
σε ανακαλύπτω και με τρομάζεις
G#m
παίζεις με χαρτιά στημένα και μου τη σπας
 
G#m           E F#                   G#m
Επικίνδυνα αγαπάς καταστρέφεις όπου πας   Riff2
 
G#m           E F#                   G#m
Επικίνδυνα αγαπάς δε σε νοιάζει πια για μας   Riff3
 
Ένοχος στα μάτια σου εγώ   Riff
χάσαμε το νόημα και οι δυο   Riff
φοβάμαι να σε ψάξω όπου σε βρίσκω με πονάς   Riff
ό γύρος του θριάμβου έχει τελειώσει πια για μας   Riff
 
Έχεις καταστρέψει τη λογική μου
είσαι και ζωή και φυλακή μου
κάνεις το όνειρο μου στάχτη και με πετάς
μέρα με τη μέρα πρόσωπα αλλάζεις
σε ανακαλύπτω και με τρομάζεις
παίζεις με χαρτιά στημένα και μου τη σπας
 
Επικίνδυνα αγαπάς καταστρέφεις όπου πας
Επικίνδυνα αγαπάς δε σε νοιάζει πια για μας
Επικίνδυνα αγαπάς καταστρέφεις όπου πας
Επικίνδυνα αγαπάς δε σε νοιάζει πια για μας
 
Riff
e---------------------------------------
b---------------------------------------
g--------------6-7-6-----6--------------
d----------6-6--------9-----7-----------
a---------------------------------------
E---------------------------------------
 
Riff2
e-----------------------------------------
b-----------------------------------------
g----------6h7p6-6-7-6-4-6-4--------------
d-----------------------------------------
a-----------------------------------------
E-----------------------------------------
 
Riff3
e--7---7-----7-6--6-7-9--7-6-----7-7--7-6--6-7-9
b----9---9-------------------9----9--9----------
g---------------------------------------X2------
d-----------------------------------------------
a-----------------------------------------------
E-----------------------------------------------
 

Πρόσθεσε ένα σχόλιο

Πληροφορίες

Πρόσθεσε και εσύ συγχορδίες στην βιβλιοθήκη του Tabsy

ΔΗΜΟΣΙΕΥΣΗ