Tabsy
tabsy.gr, συγχορδίες για το τραγούδι

Ελένη

Ερμηνευτής: Βισση Αννα

Μουσική /Στίχοι: Καρβελας Νικος /Καρβελας Νικος

[Εισαγωγή]
         Ebm
e|---------6-------|
B|-------------7---|
G|-----8-----8---8-|
D|---8---8---------|  ] 6x
A|-6---------------|
E|-----------------|
 
         C#
e|---------4-------|
B|-------------4---|
G|-----6-----6---6-|
D|---6---6---------|  ] 4x
A|-4---------------|
E|-----------------|
 
         B
e|---------2-------|
B|-------------2---|
G|-----4-----4---4-|
D|---4---4---------|   ] 4x
A|-2---------------|
E|-----------------|
 
     Bb
e|---1---|
B|---1---|
G|---3---|
D|---3---|
A|---1---|
E|-------|
 
e|------------------|
B|------------------|
G|------------------|
D|-8-6-4-3-1--0-1-3-|
A|------------------|
E|------------------|
 
[Solo]
e|----6-------6-6-----6-6------------------|
B|----------7-------7-------7-6------------|
G|-8------8-------8-------------8----------|
D|-----------------------------------------|
A|-----------------------------------------|
E|-----------------------------------------|
 
e|-----------------------------------------|
B|-----9---------9-9-------9-9-------------|
G|------------10--------10-------10-8------|
D|-11------11--------11---------------11---|
A|-----------------------------------------|
E|-----------------------------------------|
 
e|-----------------------------------------|
B|----7-------7-7-----7-7------------------|
G|----------8-------8-------8-6------------|
D|-9------9-------9-------------9-8--------|
A|-----------------------------------------|
E|-----------------------------------------|
 
e|-----------------------|
B|-----------------------|
G|---------------------8-|
D|-8-6-4-3-1--0-1-3------|
A|-----------------------|
E|-----------------------|
 
Ebm
   Το χλωμό το προσωπάκι σου
                        C#
στις φωτογραφίες μας κοιτώ
          B                   A#
πόσο κουράστηκες, να φύγεις βιάστηκες
Ebm
   Τα θλιμμένα τα ματάκια σου
                         C#
σαν δυο σύννεφα στον ουρανό
           B                 A#
πού να πηγαίνουνε, πού ταξιδεύουνε
 
Ebm                                        C#
Ελένη, εκεί που πας κοίτα να είσαι ευτυχισμένη
                                    B
σ' αυτή τη γη η μοίρα σου ήταν γραμμένη
                                 A#
σ' άσπρο χαρτί με ένα κίτρινο στυλό
e|------------------|
B|------------------|
G|------------------|
D|-8-6-4-3-1--0-1-3-|
A|------------------|
E|------------------|
  σα δάκρυ από λεμόνι
Ebm
   Ελένη
 
[Solo]
e|----6-------6-6-----6-6----------------|
B|----------7-------7-------7-6----------|
G|-8------8-------8-------------8--------|
D|---------------------------------------|
A|---------------------------------------|
E|---------------------------------------|
 
e|---------------------------------------|
B|-----9---------9-9-------9-9-----------|
G|------------10--------10-------10-8----|
D|-11------11--------11---------------11-|
A|---------------------------------------|
E|---------------------------------------|
 
e|---------------------------------------|
B|----7-------7-7-----7-7----------------|
G|----------8-------8-------8-6----------|
D|-9------9-------9-------------9-8------|
A|---------------------------------------|
E|---------------------------------------|
 
e|---------------------------------------|
B|---------------------------------------|
G|---------------------8-----------------|
D|-8-6-4-3-1--0-1-3----------------------|
A|---------------------------------------|
E|---------------------------------------|
 
Ebm
   Θυμάμαι πόσα απογεύματα
                                  C#
καθόσουνα δίχως να βγάλεις τσιμουδιά
          B               A#
μόνο με κοίταζες και χαμογέλαγες
Ebm
   Σου στέλνω αυτό το τραγουδάκι μου
                          C#
για να σου κρατάει συντροφιά
               B               A#
και να μην ξεχνάς να μου χαμογελάς...
 
Ebm                                        C#
Ελένη, εκεί που πας κοίτα να είσαι ευτυχισμένη
                                    B
σ' αυτή τη γη η μοίρα σου ήταν γραμμένη
                                 A#
σ' άσπρο χαρτί με ένα κίτρινο στυλό
e|------------------|
B|------------------|
G|------------------|
D|-8-6-4-3-1--0-1-3-|
A|------------------|
E|------------------|
  σα δάκρυ από λεμόνι
Ebm
   Ελένη...
 
         Ebm
e|---------6--------|
B|-------------7----|
G|-----8-----8---8--|
D|---8---8----------|   ] 6x
A|-6----------------|
E|------------------|
 
         C#
e|-------4----------|
B|-------------4----|
G|-----6-----6---6--|
D|---6---6----------|   ] 4x
A|-4----------------|
E|------------------|
 
         B
e|--------2---------|
B|-------------2----|
G|-----4-----4---4--|
D|---4---4----------|   ] 4x
A|-2----------------|
E|------------------|
 
     Bb
e|---1---|
B|---1---|
G|---3---|
D|---3---|
A|---1---|
E|-------|
 
e|-------------------|
B|-------------------|
G|-------------------|
D|--8-6-4-3-1--0-1-3-|
A|-------------------|
E|-------------------|
 
Ebm                                        C#
Ελένη, εκεί που πας κοίτα να είσαι ευτυχισμένη
                                    B
σ' αυτή τη γη η μοίρα σου ήταν γραμμένη
                                 A#
σ' άσπρο χαρτί με ένα κίτρινο στυλό
e|--------------------|
B|--------------------|
G|--------------------|
D|-8-6-4-3-1--0-1-3---|
A|--------------------|
E|--------------------|
  σα δάκρυ από λεμόνι
Κιθάρα, συγχορδίες για το τραγούδι

Ελένη

 
8 προβολές
Δυσκολία: μέτρια
Καποτάστο: 0
11 μήνες πριν από koskleas
[Εισαγωγή]
         Ebm
e|---------6-------|
B|-------------7---|
G|-----8-----8---8-|
D|---8---8---------|  ] 6x
A|-6---------------|
E|-----------------|
 
         C#
e|---------4-------|
B|-------------4---|
G|-----6-----6---6-|
D|---6---6---------|  ] 4x
A|-4---------------|
E|-----------------|
 
         B
e|---------2-------|
B|-------------2---|
G|-----4-----4---4-|
D|---4---4---------|   ] 4x
A|-2---------------|
E|-----------------|
 
     Bb
e|---1---|
B|---1---|
G|---3---|
D|---3---|
A|---1---|
E|-------|
 
e|------------------|
B|------------------|
G|------------------|
D|-8-6-4-3-1--0-1-3-|
A|------------------|
E|------------------|
 
[Solo]
e|----6-------6-6-----6-6------------------|
B|----------7-------7-------7-6------------|
G|-8------8-------8-------------8----------|
D|-----------------------------------------|
A|-----------------------------------------|
E|-----------------------------------------|
 
e|-----------------------------------------|
B|-----9---------9-9-------9-9-------------|
G|------------10--------10-------10-8------|
D|-11------11--------11---------------11---|
A|-----------------------------------------|
E|-----------------------------------------|
 
e|-----------------------------------------|
B|----7-------7-7-----7-7------------------|
G|----------8-------8-------8-6------------|
D|-9------9-------9-------------9-8--------|
A|-----------------------------------------|
E|-----------------------------------------|
 
e|-----------------------|
B|-----------------------|
G|---------------------8-|
D|-8-6-4-3-1--0-1-3------|
A|-----------------------|
E|-----------------------|
 
Ebm
   Το χλωμό το προσωπάκι σου
                        C#
στις φωτογραφίες μας κοιτώ
          B                   A#
πόσο κουράστηκες, να φύγεις βιάστηκες
Ebm
   Τα θλιμμένα τα ματάκια σου
                         C#
σαν δυο σύννεφα στον ουρανό
           B                 A#
πού να πηγαίνουνε, πού ταξιδεύουνε
 
Ebm                                        C#
Ελένη, εκεί που πας κοίτα να είσαι ευτυχισμένη
                                    B
σ' αυτή τη γη η μοίρα σου ήταν γραμμένη
                                 A#
σ' άσπρο χαρτί με ένα κίτρινο στυλό
e|------------------|
B|------------------|
G|------------------|
D|-8-6-4-3-1--0-1-3-|
A|------------------|
E|------------------|
  σα δάκρυ από λεμόνι
Ebm
   Ελένη
 
[Solo]
e|----6-------6-6-----6-6----------------|
B|----------7-------7-------7-6----------|
G|-8------8-------8-------------8--------|
D|---------------------------------------|
A|---------------------------------------|
E|---------------------------------------|
 
e|---------------------------------------|
B|-----9---------9-9-------9-9-----------|
G|------------10--------10-------10-8----|
D|-11------11--------11---------------11-|
A|---------------------------------------|
E|---------------------------------------|
 
e|---------------------------------------|
B|----7-------7-7-----7-7----------------|
G|----------8-------8-------8-6----------|
D|-9------9-------9-------------9-8------|
A|---------------------------------------|
E|---------------------------------------|
 
e|---------------------------------------|
B|---------------------------------------|
G|---------------------8-----------------|
D|-8-6-4-3-1--0-1-3----------------------|
A|---------------------------------------|
E|---------------------------------------|
 
Ebm
   Θυμάμαι πόσα απογεύματα
                                  C#
καθόσουνα δίχως να βγάλεις τσιμουδιά
          B               A#
μόνο με κοίταζες και χαμογέλαγες
Ebm
   Σου στέλνω αυτό το τραγουδάκι μου
                          C#
για να σου κρατάει συντροφιά
               B               A#
και να μην ξεχνάς να μου χαμογελάς...
 
Ebm                                        C#
Ελένη, εκεί που πας κοίτα να είσαι ευτυχισμένη
                                    B
σ' αυτή τη γη η μοίρα σου ήταν γραμμένη
                                 A#
σ' άσπρο χαρτί με ένα κίτρινο στυλό
e|------------------|
B|------------------|
G|------------------|
D|-8-6-4-3-1--0-1-3-|
A|------------------|
E|------------------|
  σα δάκρυ από λεμόνι
Ebm
   Ελένη...
 
         Ebm
e|---------6--------|
B|-------------7----|
G|-----8-----8---8--|
D|---8---8----------|   ] 6x
A|-6----------------|
E|------------------|
 
         C#
e|-------4----------|
B|-------------4----|
G|-----6-----6---6--|
D|---6---6----------|   ] 4x
A|-4----------------|
E|------------------|
 
         B
e|--------2---------|
B|-------------2----|
G|-----4-----4---4--|
D|---4---4----------|   ] 4x
A|-2----------------|
E|------------------|
 
     Bb
e|---1---|
B|---1---|
G|---3---|
D|---3---|
A|---1---|
E|-------|
 
e|-------------------|
B|-------------------|
G|-------------------|
D|--8-6-4-3-1--0-1-3-|
A|-------------------|
E|-------------------|
 
Ebm                                        C#
Ελένη, εκεί που πας κοίτα να είσαι ευτυχισμένη
                                    B
σ' αυτή τη γη η μοίρα σου ήταν γραμμένη
                                 A#
σ' άσπρο χαρτί με ένα κίτρινο στυλό
e|--------------------|
B|--------------------|
G|--------------------|
D|-8-6-4-3-1--0-1-3---|
A|--------------------|
E|--------------------|
  σα δάκρυ από λεμόνι

Πρόσθεσε ένα σχόλιο

Πληροφορίες

Πρόσθεσε και εσύ συγχορδίες στην βιβλιοθήκη του Tabsy

ΔΗΜΟΣΙΕΥΣΗ