Κιθάρα, συγχορδίες για το τραγούδι

Κομμάτια

 
2 προβολές
Δυσκολία: μέτρια
Καποτάστο: 0
9 μήνες πριν από galhnos
Intro:
 
Em C G D
Em C G D
 
 
   Em   C   G   D            Em  C   G   D
 
e-------------------------------------------------
B-------------------------------------------------
G--7h9---------------------------------9\7p5h7----
D--------------------7-7-7-5-7~~~~----------------
A------------------7------------------------------
E-------------------------------------------------
 
e----------------------------------------------------
B----------------------------------------------------
G--9--9--9-7-9-7-7-7-7--7-7-9-7-7-7-7--7-7---7-7-7-7-
D------------------------------------------9---------
A----------------------------------------------------
E----------------------------------------------------
 
e---------------------------------------------------
B------------------------------8-8-8-8-7-8-7-7-7-7--
G-7-7-9--9--9-7-9-7-7-7-7--7-9----------------------
D---------------------------------------------------
A---------------------------------------------------
E---------------------------------------------------
 
e----------------------------------------------------
B----------------------------------------------------
G--9--9--9-7-9-7-7-7-7--7-7-9-7-7-7-7--7-7---7-7-7-7-
D------------------------------------------9---------
A----------------------------------------------------
E----------------------------------------------------
 
 
e------------------------------------------------------
B------------------------------8-8-8-8---7p5h7p5h7p5h7-
G-7-7-9--9--9-7-9-7-7-7-7--7-9---------7---------------
D------------------------------------------------------
A------------------------------------------------------
E------------------------------------------------------
 
 
Em             C     G                D
   Μαζί σου ακροβατώ,  τον κόσμο μου παγιδεύω
Em            C        G         D
   σε όνειρα και ζωή εσύ μ’ οδηγείς
Em            C     G              D
   Φεγγάρια αναπολώ   και όνειρα αναμοχλεύω
Em           C             G         D
   σενάριο σκοτεινό στο χορό της σιωπής
 
    Am                     C
Σπά-ω   στην καταχνιά μεθά-ω
                    Am              D
με τις σκιές παραμιλώ ν’ αποκαλυφθείς
 
Em          C            G            D
   Κομμάτια,  σπασμένα οράματα στα δικά σου μάτια
Em          C              G             D
   Κομμάτια,  σαν έρμαιο αφήνομαι σε χλωμά παλάτια
Em          C             G          D
   Κομμάτια,  δικός σου αιώνια θα σε ικετεύω
Bm           C        Am            D
   Κομμάτια γίνομαι μαζί σου πάντα κινδυνεύω
 
Em   C   G         D
Ωωωω     Ωωωω Ωωωω Ωωωω Ωωωω   ] 4x
 
Στο βλέμμα σου θα χαθώ, μαζί σου στην τρέλα οδεύω
ανέφικτο όνειρο μη μου αντισταθείς
Με σένα θα ενωθώ, στο σώμα σου ταξιδεύω
λαθραία μου αίσθηση στην καρδιά μου να μπεις
 
Λιώνω στην ερημιά ματώνω
με τις σκιές παραμιλώ ν’ αποκαλυφθείς
 
Κομμάτια, σπασμένα οράματα...
 
Ωωωω     Ωωωω Ωωωω Ωωωω Ωωωω   ] 4x
 
Solo:
 
e--------------------------------------------------
B--8-8-10-10/12-----------------------8-7-----8--7-
G----------------9-9-11-11/12--7--7-9-----9-7------
D--------------------------------------------------
A--------------------------------------------------
E--------------------------------------------------
 
e---------7-10-8-7-8-7---------------7--------------
B-8--8-10--------------10-8-7-8-10-7---10-8-7---7---
G---------------------------------------------9---7-
D---------------------------------------------------
A---------------------------------------------------
E---------------------------------------------------
 
e------------------------------------------------------
B-------------------------------------------------8--7-
G------------------------------------------------------
D-2-4-2--1-2-4--2-4-5--4-5-7--5-7-9--7-9-10-9-7-5------
A------------------------------------------------------
E------------------------------------------------------
 
e----------------7---------------------------------------
B-7-8-10--7-8-10---10-8-7-10-8-7------7-8-10--10h13-12p10
G--------------------------------9-11--------------------
D--------------------------------------------------------
A--------------------------------------------------------
E--------------------------------------------------------
 
e------------------------------------------------
B-10--10--10-10-12-10----10--10-10-10--10-10-10--
G---------------------12-------------------------
D------------------------------------------------
A------------------------------------------------
E------------------------------------------------
 
e-------------10-10-10---------------------------
B-10-10-10/12------------------------------------
G-----------------------12-11-9------------------
D------------------------------------------------
A------------------------------------------------
E------------------------------------------------
 
Κομμάτια, σπασμένα οράματα...
 
Ωωωω     Ωωωω Ωωωω Ωωωω Ωωωω   ] 4x
 

Πρόσθεσε ένα σχόλιο

Πληροφορίες

Πρόσθεσε και εσύ συγχορδίες στην βιβλιοθήκη του Tabsy

ΔΗΜΟΣΙΕΥΣΗ