Κιθάρα, συγχορδίες για το τραγούδι

Αναμπέλ (Ένα πρωινό)

 
18 προβολές
Δυσκολία: μέτρια
Καποτάστο: 0
9 μήνες πριν από kmenadhs
        Cm         A#
Ένα πρωινό η Παναγιά μου
                 Fm              Cm
θα ’ρθει να με βρει στην ακρογιαλιά
         Cm          A#
Πέλαγο κρυφό τα όνειρά μου
             Fm           Cm
κι έστειλες εσύ βάρκα με πανί
 
            G#            Gm
Πόσο σ’ αγαπώ κανείς δεν ξέρει
               G# D#           A#
κι αν θα μ’ αγαπάς μικρό μου ταίρι
         Fm D# A# Cm
καλοκαιρινό σ’ αγαπώ
 
[Solo]
             Cm         A#            Fm            Cm
e|--------------------------------------------------------|
B|--8-6-4-6-6/8~--8-6-4-6-----6-4-3-4-4/6~--6-8-9-11-8~---|
G|-------------------------3------------------------------|
D|--------------------------------------------------------|
A|--------------------------------------------------------|
E|--------------------------------------------------------|
             Cm         A#            Fm            Cm
e|--------------------------------------------------------|
B|--8-6-4-6-6/8~--8-6-4-6-----6-4-3-4-4/6~--6-8-9-11-8~---|
G|-------------------------3------------------------------|
D|--------------------------------------------------------|
A|--------------------------------------------------------|
E|--------------------------------------------------------|
              G#        Gm                 G# D#      A#
e|--------------------------------------------------------|
B|--8-9-11-8-8/9~--9--9-8--8~----8-9-11-8-8/9~--8-6-4-6---|
G|------------------------------------------------------3-|
D|--------------------------------------------------------|
A|--------------------------------------------------------|
E|--------------------------------------------------------|
            Fm    D#  A# Cm
e|--------------------------------------------------------|
B|--6-4-3-4-4/6~--4-6-3-4---------------------------------|
G|------------------------5~------------------------------|
D|--------------------------------------------------------|
A|--------------------------------------------------------|
E|--------------------------------------------------------|
 
             Cm         A#
Θα σταθείς ψηλά στο παραθύρι
             Fm              Cm
πάνω στα μαλλιά άστρα του νοτιά
            Cm       A#
Έχει η Παναγιά καραβοκύρη
                Fm                Cm
να μάς πάει μακριά, πέρα απ’ το νοτιά
 
            G#            Gm
Πόσο σ’ αγαπώ κανείς δεν ξέρει
               G# D#           A#
κι αν θα μ’ αγαπάς μικρό μου ταίρι
         Fm D# A# Cm
καλοκαιρινό σ’ αγαπώ
 

Πρόσθεσε ένα σχόλιο

Πληροφορίες

Πρόσθεσε και εσύ συγχορδίες στην βιβλιοθήκη του Tabsy

ΔΗΜΟΣΙΕΥΣΗ