Tabsy
tabsy.gr, συγχορδίες για το τραγούδι

Ένα σκιάχτρο που άρπαξε φωτιά

Ερμηνευτής: Διαφανα Κρινα

Μουσική /Στίχοι: Ροδοστογλου Παντελης /Ροδοστογλου Παντελης

Intro (τρομπέτα)
------------------------------------------------------------------
--13-12-13-12--------13-12--------13-12-13-12--------13-12-13-15--
--------------12-----------12-----------------12------------------   ] 2x
-----------------12-----------12-----------------12---------------
------------------------------------------------------------------
 
           C
Είναι μια χώρα που με διώχνει μακριά
       Am
Με κλωτσάει με τα σκυλιά και τους λεπρούς της
            Em
Και χτίζει γύρω μου τείχη και κελιά
         F
Για να πετάει τους νόθους γιους της
 
           C
Είναι ένας δρόμος που δεν βγάζει πουθενά
            Am
Μα τον διασχίζω με μια ελπίδα απεγνωσμένη
         Em
Γεμάτος δώρα, ξόρκια, φυλαχτά
        F
Γι’ αυτούς που ζουν στη λησμονιά
           G
Και τριγυρνάνε στη ζωή ξεγελασμένοι
 
            C
Είναι ένας διάβολος που μέσα μου γελά
           Am
Κι ένας θεός που με κοιτάζει βαλσαμωμένος
         Em
Κι εγώ ανάμεσα τους μια έρημη σκιά
        F
Να ζητιανεύω απαντήσεις πεινασμένος
 
            C
Είναι μια αγάπη σαν τον θάνατο γλυκιά
           Am
Είναι ένα θαύμα που μ’ αφήνει μαγεμένο
          Em
Διψάω γι’ άπειρο, πεινάω για ομορφιά
            F
Είμαι ένα σκιάχτρο που άρπαξε φωτιά
            G
Είμαι ένα σκιάχτρο που άρπαξε φωτιά
 
C                          Am
Μια χώρα, ένας δρόμος, ο θάνατος κι η ομορφιά
           Em                         F
Μες στα σκοτάδια τους πλανιέμαι σαν χαμένος
          C
Και κάνω κύκλους μες σ’ αυτήν την ερημιά
              Am
Σαν κάποιο σκιάχτρο που άρπαξε φωτιά
              Em                   F
Σαν κάποιο σκιάχτρο που άρπαξε φωτιά
        G
Από ανθρώπους και θεούς καταραμένος
 
           C
Είναι μια χώρα που με διώχνει μακριά
       Am
Με κλωτσάει με τα σκυλιά και τους λεπρούς της
            Em
Και χτίζει γύρω μου τείχη και κελιά
         F
Για να πετάει τους νόθους γιους της
 
            C
Είναι μια αγάπη σαν τον θάνατο γλυκιά
           Am
Είναι ένα θαύμα που μ’ αφήνει μαγεμένο
          Em
Διψάω γι’ άπειρο, πεινάω για ομορφιά
            F
Είμαι ένα σκιάχτρο που άρπαξε φωτιά
            G
Είμαι ένα σκιάχτρο που άρπαξε φωτιά
 
------------------------------------------------------------------
--13-12-13-12--------13-12--------13-12-13-12--------13-12-13-15--
--------------12-----------12-----------------12------------------   ] 2x
-----------------12-----------12-----------------12---------------
------------------------------------------------------------------
 
Κιθάρα, συγχορδίες για το τραγούδι

Ένα σκιάχτρο που άρπαξε φωτιά

 
10 προβολές
11 μήνες πριν από galhnos
Intro (τρομπέτα)
------------------------------------------------------------------
--13-12-13-12--------13-12--------13-12-13-12--------13-12-13-15--
--------------12-----------12-----------------12------------------   ] 2x
-----------------12-----------12-----------------12---------------
------------------------------------------------------------------
 
           C
Είναι μια χώρα που με διώχνει μακριά
       Am
Με κλωτσάει με τα σκυλιά και τους λεπρούς της
            Em
Και χτίζει γύρω μου τείχη και κελιά
         F
Για να πετάει τους νόθους γιους της
 
           C
Είναι ένας δρόμος που δεν βγάζει πουθενά
            Am
Μα τον διασχίζω με μια ελπίδα απεγνωσμένη
         Em
Γεμάτος δώρα, ξόρκια, φυλαχτά
        F
Γι’ αυτούς που ζουν στη λησμονιά
           G
Και τριγυρνάνε στη ζωή ξεγελασμένοι
 
            C
Είναι ένας διάβολος που μέσα μου γελά
           Am
Κι ένας θεός που με κοιτάζει βαλσαμωμένος
         Em
Κι εγώ ανάμεσα τους μια έρημη σκιά
        F
Να ζητιανεύω απαντήσεις πεινασμένος
 
            C
Είναι μια αγάπη σαν τον θάνατο γλυκιά
           Am
Είναι ένα θαύμα που μ’ αφήνει μαγεμένο
          Em
Διψάω γι’ άπειρο, πεινάω για ομορφιά
            F
Είμαι ένα σκιάχτρο που άρπαξε φωτιά
            G
Είμαι ένα σκιάχτρο που άρπαξε φωτιά
 
C                          Am
Μια χώρα, ένας δρόμος, ο θάνατος κι η ομορφιά
           Em                         F
Μες στα σκοτάδια τους πλανιέμαι σαν χαμένος
          C
Και κάνω κύκλους μες σ’ αυτήν την ερημιά
              Am
Σαν κάποιο σκιάχτρο που άρπαξε φωτιά
              Em                   F
Σαν κάποιο σκιάχτρο που άρπαξε φωτιά
        G
Από ανθρώπους και θεούς καταραμένος
 
           C
Είναι μια χώρα που με διώχνει μακριά
       Am
Με κλωτσάει με τα σκυλιά και τους λεπρούς της
            Em
Και χτίζει γύρω μου τείχη και κελιά
         F
Για να πετάει τους νόθους γιους της
 
            C
Είναι μια αγάπη σαν τον θάνατο γλυκιά
           Am
Είναι ένα θαύμα που μ’ αφήνει μαγεμένο
          Em
Διψάω γι’ άπειρο, πεινάω για ομορφιά
            F
Είμαι ένα σκιάχτρο που άρπαξε φωτιά
            G
Είμαι ένα σκιάχτρο που άρπαξε φωτιά
 
------------------------------------------------------------------
--13-12-13-12--------13-12--------13-12-13-12--------13-12-13-15--
--------------12-----------12-----------------12------------------   ] 2x
-----------------12-----------12-----------------12---------------
------------------------------------------------------------------
 

Πρόσθεσε ένα σχόλιο

Πληροφορίες

Πρόσθεσε και εσύ συγχορδίες στην βιβλιοθήκη του Tabsy

ΔΗΜΟΣΙΕΥΣΗ