Tabsy
tabsy.gr, συγχορδίες για το τραγούδι

Μίζερο φως

Ερμηνευτής: Διαφανα Κρινα

Μουσική /Στίχοι: Διαφανα Κρινα /Ανεστοπουλος Θανος

[Εισαγωγή]
Riff2
Riff1

[Κουπλέ]
      Em   Bm         C
Μίζερο φως, στο δωμάτιο
          Em    Bm         C
Πνιγμένες φωνές, απ' τον διάδρομο
           Em    Bm           C
Ένα άθλιο στρώμα, γεμάτο με αίμα
          Em   Bm                  C
Ένα άψυχο σώμα, μ' ένα μαχαίρι στο δέρμα

[Ρεφραίν]
              Em             Bm            C
Σκαλίζει μια φράση πάνω στο δέρμα μόνο με αίμα
              Em          Bm            C
Δεν είναι η αγάπη τίποτε άλλο παρά ένα ψέμα

[Κουπλέ]
        Em  Bm             C
Βήματα αργά, σέρνει το κορμί του
               Em   Bm           C
Μπρος στον καθρέφτη γέρνει τη μορφή του
            Em   Bm          C
Τα μάτια αδειανά, γεμάτα με αίμα
          Em  Bm                    C
Ένα άψυχο σώμα, μ' ένα μαχαίρι στο δέρμα
 
[Ρεφραίν]
              Em             Bm            C
Σκαλίζει μια φράση πάνω στο δέρμα μόνο με αίμα
              Em          Bm            C
Δεν είναι η αγάπη τίποτε άλλο παρά ένα ψέμα

[Κουπλέ]
        Em   Bm      C
Σφίγγει γερά, το μαχαίρι του
         Em   Bm         C
Το φέρνει αργά πάνω στο στήθος του
          Em  Bm          C
Τα μάτια κενά, ένα άθλιο τέρμα
        Em         Bm                        C
Ένας τρελός, ένας τρελός μ' ένα μαχαίρι στο δέρμα
 
[Ρεφραίν]
              Em             Bm            C
Σκαλίζει μια φράση πάνω στο δέρμα μόνο με αίμα
              Em          Bm            C
Δεν είναι η αγάπη τίποτε άλλο παρά ένα ψέμα

[Riff1]
  Em
|-0----0-------------2-------------0--------------0--------|
|-0------0-------------3-------------1--------------1------|
|-0--------0-------4-----4-------0-----0--------0-----0----|
|-2--------------4-------------2---------2----2---------2--|
|-2----------0-2-----------0-3--------------3--------------|
|-0--------------------------------------------------------|
 
[Riff2]
  Em          Bm         C
|-0---0------2---2------0---0---------0-----0----------------|
|-0-----0----3-----3----1-----1---------1-----1--------------|
|-0-------0--4-------4--0-------0---------0-----0------------|
|-2----------4----------2---------(2)------------------------|
|-2----------2----------3------------------------------------|
|-0----------------------------------------------------------|

[Riff3]
|----------------------------------------------------------------------------
|----------------------------------------------------------------------------
|---------7-9--9-7-------7--------------------9b-----------------------------
|--7-9-10----------10-9----10-9p7-9h10-10-10*--------------------------------
|----------------------------------------------------------------------------
|----------------------------------------------------------------------------
 
[Outro]
|----------------------------------------------------------------------------
|----------------------------------------------------------------------------
|--9b10--7----9-9-7------------10b-r9--7----9-9-7----------------------------
|----------9--------9--7-9---------------9--------9--7-9---------------------
|--------------------------10----------------------------10------------------
|----------------------------------------------------------------------------
 
Κιθάρα, συγχορδίες για το τραγούδι

Μίζερο φως

 
22 προβολές
Δυσκολία: μέτρια
Καποτάστο: 0
περίπου 1 χρόνο πριν από efraimoy
[Εισαγωγή]
Riff2
Riff1

[Κουπλέ]
      Em   Bm         C
Μίζερο φως, στο δωμάτιο
          Em    Bm         C
Πνιγμένες φωνές, απ' τον διάδρομο
           Em    Bm           C
Ένα άθλιο στρώμα, γεμάτο με αίμα
          Em   Bm                  C
Ένα άψυχο σώμα, μ' ένα μαχαίρι στο δέρμα

[Ρεφραίν]
              Em             Bm            C
Σκαλίζει μια φράση πάνω στο δέρμα μόνο με αίμα
              Em          Bm            C
Δεν είναι η αγάπη τίποτε άλλο παρά ένα ψέμα

[Κουπλέ]
        Em  Bm             C
Βήματα αργά, σέρνει το κορμί του
               Em   Bm           C
Μπρος στον καθρέφτη γέρνει τη μορφή του
            Em   Bm          C
Τα μάτια αδειανά, γεμάτα με αίμα
          Em  Bm                    C
Ένα άψυχο σώμα, μ' ένα μαχαίρι στο δέρμα
 
[Ρεφραίν]
              Em             Bm            C
Σκαλίζει μια φράση πάνω στο δέρμα μόνο με αίμα
              Em          Bm            C
Δεν είναι η αγάπη τίποτε άλλο παρά ένα ψέμα

[Κουπλέ]
        Em   Bm      C
Σφίγγει γερά, το μαχαίρι του
         Em   Bm         C
Το φέρνει αργά πάνω στο στήθος του
          Em  Bm          C
Τα μάτια κενά, ένα άθλιο τέρμα
        Em         Bm                        C
Ένας τρελός, ένας τρελός μ' ένα μαχαίρι στο δέρμα
 
[Ρεφραίν]
              Em             Bm            C
Σκαλίζει μια φράση πάνω στο δέρμα μόνο με αίμα
              Em          Bm            C
Δεν είναι η αγάπη τίποτε άλλο παρά ένα ψέμα

[Riff1]
  Em
|-0----0-------------2-------------0--------------0--------|
|-0------0-------------3-------------1--------------1------|
|-0--------0-------4-----4-------0-----0--------0-----0----|
|-2--------------4-------------2---------2----2---------2--|
|-2----------0-2-----------0-3--------------3--------------|
|-0--------------------------------------------------------|
 
[Riff2]
  Em          Bm         C
|-0---0------2---2------0---0---------0-----0----------------|
|-0-----0----3-----3----1-----1---------1-----1--------------|
|-0-------0--4-------4--0-------0---------0-----0------------|
|-2----------4----------2---------(2)------------------------|
|-2----------2----------3------------------------------------|
|-0----------------------------------------------------------|

[Riff3]
|----------------------------------------------------------------------------
|----------------------------------------------------------------------------
|---------7-9--9-7-------7--------------------9b-----------------------------
|--7-9-10----------10-9----10-9p7-9h10-10-10*--------------------------------
|----------------------------------------------------------------------------
|----------------------------------------------------------------------------
 
[Outro]
|----------------------------------------------------------------------------
|----------------------------------------------------------------------------
|--9b10--7----9-9-7------------10b-r9--7----9-9-7----------------------------
|----------9--------9--7-9---------------9--------9--7-9---------------------
|--------------------------10----------------------------10------------------
|----------------------------------------------------------------------------
 

Πρόσθεσε ένα σχόλιο

Πληροφορίες

Πρόσθεσε και εσύ συγχορδίες στην βιβλιοθήκη του Tabsy

ΔΗΜΟΣΙΕΥΣΗ