Tabsy
tabsy.gr, συγχορδίες για το τραγούδι

Όλα αυτά που δε θα δω

Ερμηνευτής: Διαφανα Κρινα

Μουσική /Στίχοι: Διαφανα Κρινα /Ροδοστογλου Παντελης

[Εισαγωγή]
Riff
C Em7 Am G
Dm Am G

[Κουπλέ]
        C                         Em7
Κάποιος έτρεχε στο πλήθος κάποιος άλλος όχι εγώ
     Am                      G
εγώ τάιζα τους λύκους και κοιμόμουν στο βουνό
       Dm                            Am
Κάποιος μου 'κλεψε τα χρόνια και μου πήρε τη ψυχή
      G                    
εγώ άκουγα τ' αηδόνια κι έπινα γλυκό κρασί

        C                         Em7
Κάποιος ζούσε τη ζωή μου μες το σπίτι μου είχε μπει
     Am                           G
τον κοιτούσα απ 'το φεγγίτη που 'στρωνε να κοιμηθεί
         Dm                         Am 
κάποιος έκλαιγε με τύψεις για όσα πρόδωσα εγώ
      G                    
για όλα αυτά που 'χα αγαπήσει για όλα αυτά που δε θα δω

         C                          Em7
Κάποιος φεύγει μ 'ένα πλοίο κάποιος που δεν είμαι 'γω
     Am                      G
στη προβλήτα μες το κρύο λυπημένα τον κοιτώ
       Dm                            Am 
κάποιος έκλαιγε με τύψεις για όσα πρόδωσα εγώ
        G                    
για όλα αυτά που 'χα αγαπήσει για όλα αυτά που δε θα δω
 
          C
Για όλα αυτά που δε θα δω
          Em7
για όλα αυτά που δε θα δω
          Am
για όλα αυτά που δε θα δω
          G
για όλα αυτά που δε θα δω

[Solo]
F  Am  G  G   ] 4x
C  Em7  Am  G
Dm  Am  G  G

Riff
  C                 Em7            Am            G
|---------------------------------------------------------
|---------1-----------------3---------------1-------------
|-------------------------------------------------------0-
|-----2-----------------0---------------2-----------------
|-3---------------3-2------------2-0-----------------2----
|------------------------------------------------3--------
 
         Dm        Am               G                G
|----------------------------------------------------3---
|--------------3-------------------------------------0---
|-----------2--------------2------------------0------0---
|--------0-------------2------------------0----------0---
|-0-2-3------------0-------------------2-------------2---
|-----------------------------------3----------------3---
Κιθάρα, συγχορδίες για το τραγούδι

Όλα αυτά που δε θα δω

 
19 προβολές
Δυσκολία: μέτρια
Καποτάστο: 0
περίπου 1 χρόνο πριν από basilegrh
[Εισαγωγή]
Riff
C Em7 Am G
Dm Am G

[Κουπλέ]
        C                         Em7
Κάποιος έτρεχε στο πλήθος κάποιος άλλος όχι εγώ
     Am                      G
εγώ τάιζα τους λύκους και κοιμόμουν στο βουνό
       Dm                            Am
Κάποιος μου 'κλεψε τα χρόνια και μου πήρε τη ψυχή
      G                    
εγώ άκουγα τ' αηδόνια κι έπινα γλυκό κρασί

        C                         Em7
Κάποιος ζούσε τη ζωή μου μες το σπίτι μου είχε μπει
     Am                           G
τον κοιτούσα απ 'το φεγγίτη που 'στρωνε να κοιμηθεί
         Dm                         Am 
κάποιος έκλαιγε με τύψεις για όσα πρόδωσα εγώ
      G                    
για όλα αυτά που 'χα αγαπήσει για όλα αυτά που δε θα δω

         C                          Em7
Κάποιος φεύγει μ 'ένα πλοίο κάποιος που δεν είμαι 'γω
     Am                      G
στη προβλήτα μες το κρύο λυπημένα τον κοιτώ
       Dm                            Am 
κάποιος έκλαιγε με τύψεις για όσα πρόδωσα εγώ
        G                    
για όλα αυτά που 'χα αγαπήσει για όλα αυτά που δε θα δω
 
          C
Για όλα αυτά που δε θα δω
          Em7
για όλα αυτά που δε θα δω
          Am
για όλα αυτά που δε θα δω
          G
για όλα αυτά που δε θα δω

[Solo]
F  Am  G  G   ] 4x
C  Em7  Am  G
Dm  Am  G  G

Riff
  C                 Em7            Am            G
|---------------------------------------------------------
|---------1-----------------3---------------1-------------
|-------------------------------------------------------0-
|-----2-----------------0---------------2-----------------
|-3---------------3-2------------2-0-----------------2----
|------------------------------------------------3--------
 
         Dm        Am               G                G
|----------------------------------------------------3---
|--------------3-------------------------------------0---
|-----------2--------------2------------------0------0---
|--------0-------------2------------------0----------0---
|-0-2-3------------0-------------------2-------------2---
|-----------------------------------3----------------3---

Πρόσθεσε ένα σχόλιο

Πληροφορίες

Πρόσθεσε και εσύ συγχορδίες στην βιβλιοθήκη του Tabsy

ΔΗΜΟΣΙΕΥΣΗ