Κιθάρα, συγχορδίες για το τραγούδι

Στο πλάι σου

 
6 προβολές
Δυσκολία: μέτρια
Καποτάστο: 0
8 μήνες πριν από kanelou
[Εισαγωγή]
     Dm
e|----------------------------------------------|
B|----------------------------------------------|
G|--------0--------------0----------0-----------|
D|------------3-----3---------3----------3------|
A|---5-----------5---------------5----------5-3-|
E|----------------------------------------------|
 
   C
e|---------------------------------------------|
B|---------------------------------------------|
G|---------------------------------------------|
D|-----2-------2-----------2--2/5----5--5--5---|
A|-3---------3-------3-------------------------|
E|---------------------------------------------|
 
Dm  C  Dm  C
 
Dm                    C
  Στεκόμαστε γυμνοί απ' όνειρα
  κάτω απ' τα μαύρα σύννεφα
  απόγονοι του τίποτα
Em                F
  πελάτες της σιωπής
 
Έχουμε τσέπες αδειανές
και στην καρδιά δυο μνήματα
μια άδεια μποτίλια δίπλα στο κρεβάτι
είναι ο μόνος μας συγγενής
 
   Am               C     Am              C
e|----------------------|---------------------|
B|----------------------|---------------------|
G|----------------------|---------------------|
D|----------------------|---------------------|
A|-0---0------0--2--3---|-0---0------0--2/7---|
E|----------------------|---------------------|
 
Em F Em F
 
[Εισαγωγή]
Dm C Dm C
 
[Solo]
e|-----10-----------------10-10----------------------------------------------|
B|---------9-10-9----------------9-10-9-------8--10-8------8-10-8-11-10-8----| (1)
G|-10-------------10---10---------------10-9------------9-----------------11-|
D|---------------------------------------------------------------------------|
A|---------------------------------------------------------------------------|
E|---------------------------------------------------------------------------|
 
e|---10------------------10-10------------------------------------------------------|
B|--------9-10-9----------------9-10-9-------8-10-8-11-8-10-8-11-10-8----11-10-8----| (2)
G|10-------------10---10---------------10-9---------------------------10---------11-|
D|----------------------------------------------------------------------------------|
A|----------------------------------------------------------------------------------|
E|----------------------------------------------------------------------------------|

Κορόνα γράμματα ποντάρουμε το θάνατό μας
την ίδια κλίση παίρνουμε φλερτάροντας γκρεμούς
κι όταν δε θα' χουμε πια τίποτα δικό μας
ο έρωτας θα μας τσακίσει και θα μας κάνει αληθινούς
 
Am                        C
  Θα μ' αγαπάς, θα μ' αγαπάς μα δε θα φτάνει
Am                     C
Άγονη βροχή θα πέφτει πάνω μου το χάδι σου
             Em                     F
και εγώ σαν γέρικο σκυλί μες στο λιμάνι
             Em                     F
και εγώ σαν γέρικο σκυλί μες στο λιμάνι
 
                 C                        G
θα πεθαίνω στο πλάι σου, θα πεθαίνω στο πλάι σου
                 Am                       F
θα πεθαίνω στο πλάι σου, θα πεθαίνω στο πλάι σου
 

Πρόσθεσε ένα σχόλιο

Πληροφορίες

Πρόσθεσε και εσύ συγχορδίες στην βιβλιοθήκη του Tabsy

ΔΗΜΟΣΙΕΥΣΗ