Tabsy
tabsy.gr, συγχορδίες για το τραγούδι

Πάρτι Μασκέ

Ερμηνευτής: Δυτικες Συνοικιες

Μουσική /Στίχοι: Μαντζουρανης Βασιλης /Μαντζουρανης Βασιλης

[Εισαγωγή]
e|----------------------------------------------------|
B|------------5-5~--5h6p5-----------------5-5~~-------|
G|--5-5--7-7--------------7-5-4-5-5--7-7--------------|
D|----------------------------------------------------|
A|----------------------------------------------------|
E|----------------------------------------------------|

    F5     G5   A5                   F5     G5    A5
e|----------------------------------------------------|
B|------------5-5~--5h6p5-----------------------------|
G|--5-5--7-7--------------7-5-4-5-5--7-7--5-4-5-4-----|  ] 2x
D|------------------------------------------------7~--|
A|----------------------------------------------------|
E|----------------------------------------------------|

A5               A5 G5 F5              G5
Ο ήλιος πέφτει ξανά,     τα προάστια ονειρεύονται
A5            A5 G5 F5          G5
Σ’ έναν ορίζοντα    χαμένος κι εγώ
A5              A5 G5 F5             G5
Οι γείτονες μακριά,    μοιάζουν να εξαφανίζονται
A5              A5 G5 F5                G5
Δε νοιάζονται πια     πως είμαι και πως ζω
 
    F5     G5   A5              F5   G5    A5
e|----------------------------------------------------|
B|------------5-5~--5h6p5-----------------5-5~~-------|
G|--5-5--7-7--------------7-5-4-5-5--7-7--------------|
D|----------------------------------------------------|
A|----------------------------------------------------|
E|----------------------------------------------------|

    Όλα      σικέ από την πρώτη μέρα που γεννήθηκα
    F5     G5   A5              F5     G5    A5
e|----------------------------------------------------|
B|------------5-5~--5h6p5-----------------------------|
G|--5-5--7-7--------------7-5-4-5-5--7-7--5-4-5-4-----|
D|------------------------------------------------7~--|
A|----------------------------------------------------|
E|----------------------------------------------------|

    Πάρτι   μασκέ ανθρώπων που στα λόγια τους βασίστηκα
    F5     G5   A5              F5   G5    A5
e|----------------------------------------------------|
B|------------5-5~--5h6p5-----------------5-5~~-------|
G|--5-5--7-7--------------7-5-4-5-5--7-7--------------|
D|----------------------------------------------------|
A|----------------------------------------------------|
E|----------------------------------------------------|

    F5     G5   A5              F5     G5    A5
e|----------------------------------------------------|
B|------------5-5~--5h6p5-----------------------------|
G|--5-5--7-7--------------7-5-4-5-5--7-7--5-4-5-4-----|
D|------------------------------------------------7~--|
A|----------------------------------------------------|
E|----------------------------------------------------|
 
A5                    A5 G5 F5             G5
Η αλήθεια μοιάζει γκρεμός,    πριν προλάβω να γλιτώσω
A5               A5 G5 F5                  G5
Πώς πέρασε ο καιρός   χωρίς απαντήσεις να βρω
A5               A5 G5 F5             G5
Ο πόνος μου γιατρός      δε μ’ αφήνει να τελειώσω
A5                    A5 G5 F5                G5
Νομίζω πως είμαι ο εχθρός  του εαυτού μου κι εγώ
 
    F5     G5   A5              F5   G5    A5
e|----------------------------------------------------|
B|------------5-5~--5h6p5-----------------5-5~~-------|
G|--5-5--7-7--------------7-5-4-5-5--7-7--------------|
D|----------------------------------------------------|
A|----------------------------------------------------|
E|----------------------------------------------------|
    Όλα      σικέ από την πρώτη μέρα που γεννήθηκα
    
    F5     G5   A5              F5     G5    A5
e|----------------------------------------------------|
B|------------5-5~--5h6p5-----------------------------|
G|--5-5--7-7--------------7-5-4-5-5--7-7--5-4-5-4-----|
D|------------------------------------------------7~--|
A|----------------------------------------------------|
E|----------------------------------------------------|
    Πάρτι   μασκέ ανθρώπων που στα λόγια τους βασίστηκα
 
[Solo] 
A5 B5 A5
F5 G5 A5   ] 4x
 
    F5     G5   A5              F5   G5    A5
e|----------------------------------------------------|
B|------------5-5~--5h6p5-----------------5-5~~-------|
G|--5-5--7-7--------------7-5-4-5-5--7-7--------------|
D|----------------------------------------------------|
A|----------------------------------------------------|
E|----------------------------------------------------|
    Όλα      σικέ από την πρώτη μέρα που γεννήθηκα
    
    F5     G5   A5              F5     G5    A5
e|----------------------------------------------------|
B|------------5-5~--5h6p5-----------------------------|
G|--5-5--7-7--------------7-5-4-5-5--7-7--5-4-5-4-----|
D|------------------------------------------------7~--|
A|----------------------------------------------------|
E|----------------------------------------------------|
    Πάρτι   μασκέ ανθρώπων που στα λόγια τους βασίστηκα
 
    F5     G5   A5   F5   G5          A5
e|----------------------------------------------------|
B|------------5-5~------------------------------------|
G|--5-5--7-7---------5~-5-7~-5h7-5-4-4h5~-------------|
D|----------------------------------------------------|
A|----------------------------------------------------|
E|----------------------------------------------------|
     Όλα    σικε
 
Κιθάρα, συγχορδίες για το τραγούδι

Πάρτι Μασκέ

 
5 προβολές
πάνω από 1 χρόνο πριν από galhnos
[Εισαγωγή]
e|----------------------------------------------------|
B|------------5-5~--5h6p5-----------------5-5~~-------|
G|--5-5--7-7--------------7-5-4-5-5--7-7--------------|
D|----------------------------------------------------|
A|----------------------------------------------------|
E|----------------------------------------------------|

    F5     G5   A5                   F5     G5    A5
e|----------------------------------------------------|
B|------------5-5~--5h6p5-----------------------------|
G|--5-5--7-7--------------7-5-4-5-5--7-7--5-4-5-4-----|  ] 2x
D|------------------------------------------------7~--|
A|----------------------------------------------------|
E|----------------------------------------------------|

A5               A5 G5 F5              G5
Ο ήλιος πέφτει ξανά,     τα προάστια ονειρεύονται
A5            A5 G5 F5          G5
Σ’ έναν ορίζοντα    χαμένος κι εγώ
A5              A5 G5 F5             G5
Οι γείτονες μακριά,    μοιάζουν να εξαφανίζονται
A5              A5 G5 F5                G5
Δε νοιάζονται πια     πως είμαι και πως ζω
 
    F5     G5   A5              F5   G5    A5
e|----------------------------------------------------|
B|------------5-5~--5h6p5-----------------5-5~~-------|
G|--5-5--7-7--------------7-5-4-5-5--7-7--------------|
D|----------------------------------------------------|
A|----------------------------------------------------|
E|----------------------------------------------------|

    Όλα      σικέ από την πρώτη μέρα που γεννήθηκα
    F5     G5   A5              F5     G5    A5
e|----------------------------------------------------|
B|------------5-5~--5h6p5-----------------------------|
G|--5-5--7-7--------------7-5-4-5-5--7-7--5-4-5-4-----|
D|------------------------------------------------7~--|
A|----------------------------------------------------|
E|----------------------------------------------------|

    Πάρτι   μασκέ ανθρώπων που στα λόγια τους βασίστηκα
    F5     G5   A5              F5   G5    A5
e|----------------------------------------------------|
B|------------5-5~--5h6p5-----------------5-5~~-------|
G|--5-5--7-7--------------7-5-4-5-5--7-7--------------|
D|----------------------------------------------------|
A|----------------------------------------------------|
E|----------------------------------------------------|

    F5     G5   A5              F5     G5    A5
e|----------------------------------------------------|
B|------------5-5~--5h6p5-----------------------------|
G|--5-5--7-7--------------7-5-4-5-5--7-7--5-4-5-4-----|
D|------------------------------------------------7~--|
A|----------------------------------------------------|
E|----------------------------------------------------|
 
A5                    A5 G5 F5             G5
Η αλήθεια μοιάζει γκρεμός,    πριν προλάβω να γλιτώσω
A5               A5 G5 F5                  G5
Πώς πέρασε ο καιρός   χωρίς απαντήσεις να βρω
A5               A5 G5 F5             G5
Ο πόνος μου γιατρός      δε μ’ αφήνει να τελειώσω
A5                    A5 G5 F5                G5
Νομίζω πως είμαι ο εχθρός  του εαυτού μου κι εγώ
 
    F5     G5   A5              F5   G5    A5
e|----------------------------------------------------|
B|------------5-5~--5h6p5-----------------5-5~~-------|
G|--5-5--7-7--------------7-5-4-5-5--7-7--------------|
D|----------------------------------------------------|
A|----------------------------------------------------|
E|----------------------------------------------------|
    Όλα      σικέ από την πρώτη μέρα που γεννήθηκα
    
    F5     G5   A5              F5     G5    A5
e|----------------------------------------------------|
B|------------5-5~--5h6p5-----------------------------|
G|--5-5--7-7--------------7-5-4-5-5--7-7--5-4-5-4-----|
D|------------------------------------------------7~--|
A|----------------------------------------------------|
E|----------------------------------------------------|
    Πάρτι   μασκέ ανθρώπων που στα λόγια τους βασίστηκα
 
[Solo] 
A5 B5 A5
F5 G5 A5   ] 4x
 
    F5     G5   A5              F5   G5    A5
e|----------------------------------------------------|
B|------------5-5~--5h6p5-----------------5-5~~-------|
G|--5-5--7-7--------------7-5-4-5-5--7-7--------------|
D|----------------------------------------------------|
A|----------------------------------------------------|
E|----------------------------------------------------|
    Όλα      σικέ από την πρώτη μέρα που γεννήθηκα
    
    F5     G5   A5              F5     G5    A5
e|----------------------------------------------------|
B|------------5-5~--5h6p5-----------------------------|
G|--5-5--7-7--------------7-5-4-5-5--7-7--5-4-5-4-----|
D|------------------------------------------------7~--|
A|----------------------------------------------------|
E|----------------------------------------------------|
    Πάρτι   μασκέ ανθρώπων που στα λόγια τους βασίστηκα
 
    F5     G5   A5   F5   G5          A5
e|----------------------------------------------------|
B|------------5-5~------------------------------------|
G|--5-5--7-7---------5~-5-7~-5h7-5-4-4h5~-------------|
D|----------------------------------------------------|
A|----------------------------------------------------|
E|----------------------------------------------------|
     Όλα    σικε
 

Πρόσθεσε ένα σχόλιο

Πληροφορίες

Πρόσθεσε και εσύ συγχορδίες στην βιβλιοθήκη του Tabsy

ΔΗΜΟΣΙΕΥΣΗ