Tabsy
tabsy.gr, συγχορδίες για το τραγούδι

Πές μου γιατί

Ερμηνευτής: Δυτικες Συνοικιες

Μουσική /Στίχοι: Μαντζουρανης Βασιλης /Μαντζουρανης Βασιλης

Intro:   ] 3x
         Am                 F                Dm                       Em
e---------0-----0-|----------0-----0-|---------1-----1-|---------0-----0-------0-----0-|
B-----1-----1-----|-----1------1-----|-----3-----3-----|-----0-----0------0------0-----|
G-------2-----2---|--------2-----2---|-------2-----2---|-------0-----0------0------0---|
D-----------------|------------------|--0--------------|-------------------------------|
A--0--------------|--3---------------|-----------------|--2----------------------------|
E-----------------|------------------|-----------------|-------------------------------|

[Κουπλέ]
Am            F          Dm          G
Πες μου γιατί να ναι όλα άσχημα μακριά σου
Am             F           Dm         G
Πες μου γιατί να μου λείπει τόσο η αγκαλιά σου
Am        F               C            G
Πες μου γιατί τριγυρίζεις μέσα στο μυαλό μου
Am             F         Dm         Em
Πες μου γιατί δεν αντέχω πια τον εαυτό μου

[Ρεφραίν]
Em                Am
Σε μπαρ και σε μοτέλ
       F             G
Σε λεωφόρους σε πεζοδρόμια
Em             Am
Ψάχνω για να βρω
          F          G
Μάτια με τα δικά σου όμοια
Em                Am
Σε μπαρ και σε μοτέλ
            F           G
Για να πειστώ πως σε ξεπέρασα
Em          F            Dm             G
Είχα τον παράδεισο και το 'μάθα όταν σ' έχασα
 
[Solo]
Am Em 
Am Em 
Am Em 
F G F G Am

[Κουπλέ]
Am          F           Dm       G
Πες μου γιατί όλα να θυμίζουνε εσένα
Am           F       Dm     G
Η σιωπή τα ρούχα που ναι πεταμένα
Am             F           C          G
Πες μου γιατί τριγυρίζεις μέσα στο μυαλό μου
Am          F               Dm        Em
Πες μου γιατί δεν γνωρίζω πια τον εαυτό μου

[Ρεφραίν]
Em                Am
Σε μπαρ και σε μοτέλ
       F             G
Σε λεωφόρους σε πεζοδρόμια
Em             Am
Ψάχνω για να βρω
          F          G
Μάτια με τα δικά σου όμοια
Em                Am
Σε μπαρ και σε μοτέλ
            F           G
Για να πειστώ πως σε ξεπέρασα
Em          F            Dm             G
Είχα τον παράδεισο και το 'μάθα όταν σ' έχασα
Κιθάρα, συγχορδίες για το τραγούδι

Πές μου γιατί

 
11 προβολές
11 μήνες πριν από kanelou
Intro:   ] 3x
         Am                 F                Dm                       Em
e---------0-----0-|----------0-----0-|---------1-----1-|---------0-----0-------0-----0-|
B-----1-----1-----|-----1------1-----|-----3-----3-----|-----0-----0------0------0-----|
G-------2-----2---|--------2-----2---|-------2-----2---|-------0-----0------0------0---|
D-----------------|------------------|--0--------------|-------------------------------|
A--0--------------|--3---------------|-----------------|--2----------------------------|
E-----------------|------------------|-----------------|-------------------------------|

[Κουπλέ]
Am            F          Dm          G
Πες μου γιατί να ναι όλα άσχημα μακριά σου
Am             F           Dm         G
Πες μου γιατί να μου λείπει τόσο η αγκαλιά σου
Am        F               C            G
Πες μου γιατί τριγυρίζεις μέσα στο μυαλό μου
Am             F         Dm         Em
Πες μου γιατί δεν αντέχω πια τον εαυτό μου

[Ρεφραίν]
Em                Am
Σε μπαρ και σε μοτέλ
       F             G
Σε λεωφόρους σε πεζοδρόμια
Em             Am
Ψάχνω για να βρω
          F          G
Μάτια με τα δικά σου όμοια
Em                Am
Σε μπαρ και σε μοτέλ
            F           G
Για να πειστώ πως σε ξεπέρασα
Em          F            Dm             G
Είχα τον παράδεισο και το 'μάθα όταν σ' έχασα
 
[Solo]
Am Em 
Am Em 
Am Em 
F G F G Am

[Κουπλέ]
Am          F           Dm       G
Πες μου γιατί όλα να θυμίζουνε εσένα
Am           F       Dm     G
Η σιωπή τα ρούχα που ναι πεταμένα
Am             F           C          G
Πες μου γιατί τριγυρίζεις μέσα στο μυαλό μου
Am          F               Dm        Em
Πες μου γιατί δεν γνωρίζω πια τον εαυτό μου

[Ρεφραίν]
Em                Am
Σε μπαρ και σε μοτέλ
       F             G
Σε λεωφόρους σε πεζοδρόμια
Em             Am
Ψάχνω για να βρω
          F          G
Μάτια με τα δικά σου όμοια
Em                Am
Σε μπαρ και σε μοτέλ
            F           G
Για να πειστώ πως σε ξεπέρασα
Em          F            Dm             G
Είχα τον παράδεισο και το 'μάθα όταν σ' έχασα

Πρόσθεσε ένα σχόλιο

Πληροφορίες

Πρόσθεσε και εσύ συγχορδίες στην βιβλιοθήκη του Tabsy

ΔΗΜΟΣΙΕΥΣΗ