Κιθάρα, συγχορδίες για το τραγούδι

Σκιά

 
3 προβολές
Δυσκολία: μέτρια
Καποτάστο: 0
9 μήνες πριν από galhnos
F                           G
Απότομα απ' τον ύπνο μου σηκώνομαι
F                     G
Απότομα που φεύγει η ζωή
F                                   G
και μέσα απ' τα σκεπάσματά μου σκεφτικός
F                  G
να περιμένω την αυγή
 
(από εδώ και μέχρι το τέλος του solo όλα πέμπτες)
F                            G
Δεν ξέρω, τι φταίει για ότι χάνω
F                           G
Για ότι μου λείπει ότι θα βρω
 
       C           (F)            G
Σαν σκιά που μου φυλάει πιστά τα νώτα
      C            (F)         G
Σαν σκιά που δυναμώνει από τα φώτα
       C            F
έτσι νιώθω πως μ' αγγίζεις
         G                  C           F
Μα είσαι ψέμα, που αν το πιστέψω πιο βαθιά
G       C
θα πληγωθώ
 
Solo 1:
C-D-G  C-D  C-D-G C-D
 
Αδύναμος να αντιδράσω φαίνομαι
Ανήμπορος να φύγω μακριά
Αυτό που με κρατά, αυτό με διώχνει
μέσα απ' τη δική σου αγκαλιά
 
Δεν ξέρω τι φταίει...
 
Σαν σκιά που μου φυλάει πιστά τα νώτα...
 
Solo 2:
C D G       C D        C D G        C D
 
Σαν σκιά που μου φυλάει πιστά τα νώτα...
F G C
 
Solo 1:
e-----------------------------------------------------------------------
b-----------------------------------------------------------------------
g-------5~-------4h5-5-----4h5-5-----4-5-7-----5-4----------------------
d-------------7----------7----------------------------7---7p5-----------
a-----------------------------------------------------------------------
e-----------------------------------------------------------------------
 
e-----------------------------------------------------------------------
b-------------------------------------------5-------------5-------------
g—4h5-7-5-4-5-7-5-4-5-7-5-4-5—4-5-7—5-7-7b9---9r7-5---7b9---9r7-5~------
d-----------------------------------------------------------------------
a-----------------------------------------------------------------------
e-----------------------------------------------------------------------
 
e-----------------------------------------------------------------------
b-----------------------------------------------------------------------
g-----4h5-5-----4h5-5-----4-5-7----5-4----------------4h5-7-5-4-5-7-5-4-
d--7---------7----------------------------7--7p5------------------------
a-----------------------------------------------------------------------
e-----------------------------------------------------------------------
 
e-----------------------------------------------------------------------
b-----------------------------------------------------------------------
g--5-7-5-4-5—4-5-7~-----------------------------------------------------
d-----------------------------------------------------------------------
a-----------------------------------------------------------------------
e-----------------------------------------------------------------------
 
Solo 2:
 
e-----------------------------------------------------------------------
b-----------------------------------------------------------------------
g----5~--------4h5-5------4h5-5-----4-5-7-----5-4-----------------------
d-----------7----------7-----------------------------7---7p5------------
a-----------------------------------------------------------------------
e-----------------------------------------------------------------------
 
e-----------------------------------------------------------------------
b--------------------------------------------5------5-------------------
g—4h5-7-5-4-5-7-5-4-5-7-5-4-5—4-5-7—5-7-7b9---9r7-5--7b9---9r7-5~-------   ] 2x
d-----------------------------------------------------------------------
a-----------------------------------------------------------------------
e-----------------------------------------------------------------------
 

Πρόσθεσε ένα σχόλιο

Πληροφορίες

Πρόσθεσε και εσύ συγχορδίες στην βιβλιοθήκη του Tabsy

ΔΗΜΟΣΙΕΥΣΗ