Tabsy
tabsy.gr, συγχορδίες για το τραγούδι

Θα βάλω τα δυνατά μου

Ερμηνευτής: Δυτικες Συνοικιες

Μουσική /Στίχοι: Μαντζουρανης Βασιλης /Μυλωσης Κωστας

Intro x2:
e|----|------------------------------------|----
B|----|------------------------------------|----
G|----|------------------------------------|----
D|----|----------------0------0------------|----
A|-0--|--0-2-3-----2-3----------3-2------2-|----
E|----|--------------------------------3---|----
 
[Intro]
e|-------------------------------------------|----
B|-------------------------------------------|----
G|-------------------------------------------|----
D|-7----7-9-10----9-10-12----12-10-9-------9-|----
A|--------------------------------------10---|-10-
E|-------------------------------------------|----
 |                                           |

   Am       F          Dm          G           Am
e|---------------------1---------------------|----
B|---------------------3---------------------|----
G|-2--------2----------2-----------0---------|-2--
D|-2--------3----------0-----------0---------|-2--
A|-0--------3----------------------2---------|-0--
E|----------1----------------------3---------|----
 
 
Am                 F  Dm           G
Μια ματιά στα κλεφτά,   Η ζωή μου αέρας που
   Am     F  Dm                 G               Am
φυσά δυνατά    και για πρώτη φορά περπατώ σταθερά...
 
[drum fill]
 
Am                      G F
  Θα βάλω τα δυνατά μου
                G             Am
μαύρη πέτρα θα ρίξω στο παρελθόν
                                  G F
Δεν θα προδώσω ξανά τα όνειρά μου
                    G               Am
τη ζωή μου στα σκουπίδια εγώ δεν πετώ
 
Intro x1...
Intro with solo x1...
 
Am              F  Dm            G
Γεια χαρά μοναξιά,   Είμαι ένας φίλος σου απ’ τα
   Am            F  Dm              G                  Am
παλιά, Κι η βραδιά,   Θα περάσει χωρίς τα δικά σου φιλιά...
 
[drum fill]
 
Θα βάλω τα δυνατά μου...
 
  Heavy Guitar
e|------------------------------------|----
B|------------------------------------|----
G|------------------------------------|----
D|------------------------------------|----
A|---------------------------3--0-----|----
E|--5--3--5---3---5---3--5------------|----
 
e|------------------------------------|----
B|------------------------------------|----
G|------------------------------------|----
D|------------------------------------|----
A|-------------------------2--3--2----|----
E|-1-0--1---1---3---1--3------------3-|----
 
  Acoustic Guitar
e|-------------------------------------|----
B|-------------------------------------|----
G|--------------------------12---------|----
D|-14-12-14--12--14--12-14-----14------|----
A|-------------------------------------|----
E|-------------------------------------|----
 
e|-------------------------------------|----
B|-------------------------------------|----
G|-------------------------------------|----
D|-10-9-10--10--12--10-12--------10-12-|----
A|-------------------------10-12-------|----
E|-------------------------------------|----
 
 
   Am             F              Dm                   G
e|--------------------------------------------------------|-
B|--------------------------------------------------------|-
G|--------------------------------------------------------|-
D|-------10-------------10-------------10-12/14\12-10-12--|-
A|-10h12----12----10h12----12----10h12--------------------|-
E|--------------------------------------------------------|-
 
   Am                 F
e|-15-13-12-----------13-12-10----------|-
B|----------15-13-12-----------13-12-10-|-
G|--------------------------------------|-
D|--------------------------------------|-
A|--------------------------------------|-
E|--------------------------------------|-
 
   Dm               G
e|-12-10-8-------------------------|-
B|---------12-10-8--8h10p8h10......|-
G|---------------------------------|-
D|---------------------------------|-
A|---------------------------------|-
E|---------------------------------|-
 
   Am                       F
e|-151412151412151412151412--------------------------|-
B|--------------------------151412151412151412151412-|-
G|---------------------------------------------------|-
D|---------------------------------------------------|-
A|---------------------------------------------------|-
E|---------------------------------------------------|-
 
   Dm                    G
e|-------------------------------------|-
B|-12-13-12-10-8-10-8-10-10/12-12\10-8-|-
G|-------------------------------------|-
D|-------------------------------------|-
A|-------------------------------------|-
E|-------------------------------------|-
 
   Am     F                 Dm  G                  Am
e|-----------------------------------------------|-----
B|-10-----10-12-13-12--10-8-10--------------8h10-|-10--
G|--------------------------------------7799-----|-----
D|----------------------------------7799---------|-----
A|------------------------------7799-------------|-----
E|-----------------------------------------------|-----
 
Am                      G F
  Θα βάλω τα δυνατά μου
                G             Am
μαύρη πέτρα θα ρίξω στο παρελθόν
                                  G F
Δεν θα προδώσω ξανά τα όνειρά μου
                    G               Am
τη ζωή μου στα σκουπίδια εγώ δεν πετώ
Κιθάρα, συγχορδίες για το τραγούδι

Θα βάλω τα δυνατά μου

 
10 προβολές
Δυσκολία: μέτρια
Καποτάστο: 0
πάνω από 1 χρόνο πριν από koskleas
Intro x2:
e|----|------------------------------------|----
B|----|------------------------------------|----
G|----|------------------------------------|----
D|----|----------------0------0------------|----
A|-0--|--0-2-3-----2-3----------3-2------2-|----
E|----|--------------------------------3---|----
 
[Intro]
e|-------------------------------------------|----
B|-------------------------------------------|----
G|-------------------------------------------|----
D|-7----7-9-10----9-10-12----12-10-9-------9-|----
A|--------------------------------------10---|-10-
E|-------------------------------------------|----
 |                                           |

   Am       F          Dm          G           Am
e|---------------------1---------------------|----
B|---------------------3---------------------|----
G|-2--------2----------2-----------0---------|-2--
D|-2--------3----------0-----------0---------|-2--
A|-0--------3----------------------2---------|-0--
E|----------1----------------------3---------|----
 
 
Am                 F  Dm           G
Μια ματιά στα κλεφτά,   Η ζωή μου αέρας που
   Am     F  Dm                 G               Am
φυσά δυνατά    και για πρώτη φορά περπατώ σταθερά...
 
[drum fill]
 
Am                      G F
  Θα βάλω τα δυνατά μου
                G             Am
μαύρη πέτρα θα ρίξω στο παρελθόν
                                  G F
Δεν θα προδώσω ξανά τα όνειρά μου
                    G               Am
τη ζωή μου στα σκουπίδια εγώ δεν πετώ
 
Intro x1...
Intro with solo x1...
 
Am              F  Dm            G
Γεια χαρά μοναξιά,   Είμαι ένας φίλος σου απ’ τα
   Am            F  Dm              G                  Am
παλιά, Κι η βραδιά,   Θα περάσει χωρίς τα δικά σου φιλιά...
 
[drum fill]
 
Θα βάλω τα δυνατά μου...
 
  Heavy Guitar
e|------------------------------------|----
B|------------------------------------|----
G|------------------------------------|----
D|------------------------------------|----
A|---------------------------3--0-----|----
E|--5--3--5---3---5---3--5------------|----
 
e|------------------------------------|----
B|------------------------------------|----
G|------------------------------------|----
D|------------------------------------|----
A|-------------------------2--3--2----|----
E|-1-0--1---1---3---1--3------------3-|----
 
  Acoustic Guitar
e|-------------------------------------|----
B|-------------------------------------|----
G|--------------------------12---------|----
D|-14-12-14--12--14--12-14-----14------|----
A|-------------------------------------|----
E|-------------------------------------|----
 
e|-------------------------------------|----
B|-------------------------------------|----
G|-------------------------------------|----
D|-10-9-10--10--12--10-12--------10-12-|----
A|-------------------------10-12-------|----
E|-------------------------------------|----
 
 
   Am             F              Dm                   G
e|--------------------------------------------------------|-
B|--------------------------------------------------------|-
G|--------------------------------------------------------|-
D|-------10-------------10-------------10-12/14\12-10-12--|-
A|-10h12----12----10h12----12----10h12--------------------|-
E|--------------------------------------------------------|-
 
   Am                 F
e|-15-13-12-----------13-12-10----------|-
B|----------15-13-12-----------13-12-10-|-
G|--------------------------------------|-
D|--------------------------------------|-
A|--------------------------------------|-
E|--------------------------------------|-
 
   Dm               G
e|-12-10-8-------------------------|-
B|---------12-10-8--8h10p8h10......|-
G|---------------------------------|-
D|---------------------------------|-
A|---------------------------------|-
E|---------------------------------|-
 
   Am                       F
e|-151412151412151412151412--------------------------|-
B|--------------------------151412151412151412151412-|-
G|---------------------------------------------------|-
D|---------------------------------------------------|-
A|---------------------------------------------------|-
E|---------------------------------------------------|-
 
   Dm                    G
e|-------------------------------------|-
B|-12-13-12-10-8-10-8-10-10/12-12\10-8-|-
G|-------------------------------------|-
D|-------------------------------------|-
A|-------------------------------------|-
E|-------------------------------------|-
 
   Am     F                 Dm  G                  Am
e|-----------------------------------------------|-----
B|-10-----10-12-13-12--10-8-10--------------8h10-|-10--
G|--------------------------------------7799-----|-----
D|----------------------------------7799---------|-----
A|------------------------------7799-------------|-----
E|-----------------------------------------------|-----
 
Am                      G F
  Θα βάλω τα δυνατά μου
                G             Am
μαύρη πέτρα θα ρίξω στο παρελθόν
                                  G F
Δεν θα προδώσω ξανά τα όνειρά μου
                    G               Am
τη ζωή μου στα σκουπίδια εγώ δεν πετώ

Πρόσθεσε ένα σχόλιο

Πληροφορίες

Πρόσθεσε και εσύ συγχορδίες στην βιβλιοθήκη του Tabsy

ΔΗΜΟΣΙΕΥΣΗ