Tabsy
tabsy.gr, συγχορδίες για το τραγούδι

Βουτιά από ψηλά

Ερμηνευτής: Ενδελεχεια

Μουσική /Στίχοι: Ενδελεχεια /Μητσοτακης Δημητρης

[Riff 1]
   Dm                                 E7/D                          Dm
e|-------------------------------|-------------------------------------|
B|-10---11--10h11p10-------10----|----9---------------10-----------10--|
G|-10-----------------12---10----|----9----9--10--12------9h10p9---10--|
E|-12----------------------12----|----9----------------------------12--|
A|-------------------------------|-------------------------------------|
D|-------------------------------|-------------------------------------|

[Riff2]
   Dm                                 E7/D                          Dm
e|-------------------------------|-------------------------------------|
B|-10---11--10h11p10-------10----|----9----------------------------10--|
G|-10-----------------12---10----|----9----------------------------10--|
E|-12----------------------12----|----9----------------------------12--|
A|-------------------------------|-------------------------------------|
D|-------------------------------|-------------------------------------|
 
[Εισαγωγή]
Riff1 x2
Riff2 x2

[Κουπλέ]
Riff2
    Dm                     E7/D        Dm
Ο δρόμος μας, τυφλός της πιάτσας παραπαίδι
Riff2
   Gm/D                 A#/D       Dm       
Τα όνειρα υπόσχεση ρουφιάνου θυρωρού
Riff2
     Dm                  E7/D           Dm
Στα τάστα της κιθάρας οργή που περισσεύει
Riff2             
    Dm            A#/D                       C
σα φόνος που σχεδιάστηκε στην σκέψη ενός μωρού
 
[Ρεφρέν]
F           C         Dm  
 Ότι φτιάχνω και ότι χάλασα
     F         C              Dm
βουτιά από ψηλά σε μολυβένια θάλασσα
F           C         Dm
 Ότι φτιάχνω και ότι χάλασα
     F         C              Dm
βουτιά από ψηλά σε μολυβένια θάλασσα

[Κουπλέ]
Riff1
    Dm           E7/D                   Dm
Τα λόγια, χαρτζιλίκι από μισθό της πείνας
Gm/D             A#/D              Dm
που ωμά καταναλώθηκε χωρίς ανταμοιβή
    Dm           E7/D               Dm
Τα μάτια σου, προάστιο χαμένο της Αθήνας
  Dm              A#/D                     C
που κυνηγά τη φήμη του σε ό,τι κι αν συμβεί
 
[Ρεφρέν]
F           C         Dm  
 Ότι φτιάχνω και ότι χάλασα
     F         C              Dm
βουτιά από ψηλά σε μολυβένια θάλασσα
F           C         Dm
 Ότι φτιάχνω και ότι χάλασα
     F         C              Dm
βουτιά από ψηλά σε μολυβένια θάλασσα

[Κουπλέ]
   Dm                   E7/D     Dm
Η δύναμη που ξέπεσε και έγινε κατάρα
Gm/D               A#/D           Dm
Η φήμη που απλώθηκε και έγινε λοιμός
   Dm                E7/D              Dm
Η πίκρα πως κατάγεται απ' τη δική μας φάρα
    Dm         A#m     C
μας έπεισε και έγινε αφέντης τιμωρός
 
[Ρεφρέν]
F           C         Dm  
 Ότι φτιάχνω και ότι χάλασα
     F         C              Dm
βουτιά από ψηλά σε μολυβένια θάλασσα
F           C         Dm
 Ότι φτιάχνω και ότι χάλασα
     F         C              Dm
βουτιά από ψηλά σε μολυβένια θάλασσα
Κιθάρα, συγχορδίες για το τραγούδι

Βουτιά από ψηλά

 
23 προβολές
Δυσκολία: μέτρια
Καποτάστο: 0
11 μήνες πριν από koskleas
[Riff 1]
   Dm                                 E7/D                          Dm
e|-------------------------------|-------------------------------------|
B|-10---11--10h11p10-------10----|----9---------------10-----------10--|
G|-10-----------------12---10----|----9----9--10--12------9h10p9---10--|
E|-12----------------------12----|----9----------------------------12--|
A|-------------------------------|-------------------------------------|
D|-------------------------------|-------------------------------------|

[Riff2]
   Dm                                 E7/D                          Dm
e|-------------------------------|-------------------------------------|
B|-10---11--10h11p10-------10----|----9----------------------------10--|
G|-10-----------------12---10----|----9----------------------------10--|
E|-12----------------------12----|----9----------------------------12--|
A|-------------------------------|-------------------------------------|
D|-------------------------------|-------------------------------------|
 
[Εισαγωγή]
Riff1 x2
Riff2 x2

[Κουπλέ]
Riff2
    Dm                     E7/D        Dm
Ο δρόμος μας, τυφλός της πιάτσας παραπαίδι
Riff2
   Gm/D                 A#/D       Dm       
Τα όνειρα υπόσχεση ρουφιάνου θυρωρού
Riff2
     Dm                  E7/D           Dm
Στα τάστα της κιθάρας οργή που περισσεύει
Riff2             
    Dm            A#/D                       C
σα φόνος που σχεδιάστηκε στην σκέψη ενός μωρού
 
[Ρεφρέν]
F           C         Dm  
 Ότι φτιάχνω και ότι χάλασα
     F         C              Dm
βουτιά από ψηλά σε μολυβένια θάλασσα
F           C         Dm
 Ότι φτιάχνω και ότι χάλασα
     F         C              Dm
βουτιά από ψηλά σε μολυβένια θάλασσα

[Κουπλέ]
Riff1
    Dm           E7/D                   Dm
Τα λόγια, χαρτζιλίκι από μισθό της πείνας
Gm/D             A#/D              Dm
που ωμά καταναλώθηκε χωρίς ανταμοιβή
    Dm           E7/D               Dm
Τα μάτια σου, προάστιο χαμένο της Αθήνας
  Dm              A#/D                     C
που κυνηγά τη φήμη του σε ό,τι κι αν συμβεί
 
[Ρεφρέν]
F           C         Dm  
 Ότι φτιάχνω και ότι χάλασα
     F         C              Dm
βουτιά από ψηλά σε μολυβένια θάλασσα
F           C         Dm
 Ότι φτιάχνω και ότι χάλασα
     F         C              Dm
βουτιά από ψηλά σε μολυβένια θάλασσα

[Κουπλέ]
   Dm                   E7/D     Dm
Η δύναμη που ξέπεσε και έγινε κατάρα
Gm/D               A#/D           Dm
Η φήμη που απλώθηκε και έγινε λοιμός
   Dm                E7/D              Dm
Η πίκρα πως κατάγεται απ' τη δική μας φάρα
    Dm         A#m     C
μας έπεισε και έγινε αφέντης τιμωρός
 
[Ρεφρέν]
F           C         Dm  
 Ότι φτιάχνω και ότι χάλασα
     F         C              Dm
βουτιά από ψηλά σε μολυβένια θάλασσα
F           C         Dm
 Ότι φτιάχνω και ότι χάλασα
     F         C              Dm
βουτιά από ψηλά σε μολυβένια θάλασσα

Πρόσθεσε ένα σχόλιο

Πληροφορίες

Πρόσθεσε και εσύ συγχορδίες στην βιβλιοθήκη του Tabsy

ΔΗΜΟΣΙΕΥΣΗ