Tabsy
tabsy.gr, συγχορδίες για το τραγούδι

Διαμαντένια προβλήτα

Ερμηνευτής: Ενδελεχεια

Μουσική /Στίχοι: Μητσοτακης Δημητρης /Μητσοτακης Δημητρης

Δίσκος: Βουτιά Από Ψηλά
 
[Εισαγωγή]
   Bm
e|--------------------------------------------------------------------------|
B|--------------------------------------------------------------------------|
G|---------4-7---6-4-----------4-7---6-4-----------4-7---6-4-----------4----|
D|----4-5-----------------4-5-----------------4-5-----------------4-5-------|
A|-2-------------------2-------------------2-------------------2------------|
E|--------------------------------------------------------------------------|
 
[Riff]
   Bm                                      F#m            Em     Bm
e|-----------------------------------------------------------------------|
B|-----------------------------------------------------------------------|
G|---------4-7---6-4-----------4-7---6-4-----------2---------------------|
D|----4-5-----------------4-5-----------------4-5-----5---4-2-4--5--9----|
A|-2-------------------2-------------------------------------------------|
E|-----------------------------------------2-----------------------------|

[Κουπλέ]
       Bm
Ξεγραμμένες μανάδες ξεπεσμένοι μπαμπάδες
        F#m      Em     Bm
χρόνια τώρα νεκροί εραστές
      Bm                    
της ζωής τους ο χώρος σιωπηλή λεωφόρος
        F#m      Em         Bm
που γυρεύει μια πόρτα στο χτες
 
[Ρεφραίν] x2
 F#m          Bm
Να τα όνειρα πάρ' τα
      D       F#m
τώρα πάνω σε κάρτα
       Em     F#m
θα χτυπάμε αυτά 
        Bm   A
που αγαπάμε

[Post Chorus - Απαγγελία]
Γεννημένοι σε φάκα γαμημένοι για πλάκα
κάποια νύχτα που είχες ανία
σα λυγμός ακροβάτη σαν πορνείου κρεβάτι
που χτυπάς σιωπηλά με μανία

[Γέφυρα]
Bm D F#m D
Bm D Bm

[Κουπλέ]
        Bm
Σαν πληγή που δεν κλείνει και το αίμα αφήνει
      F#m      Em     Bm
να κυλά σα φευγάτο ποτάμι
        Bm
σαν κλισέ σε ταινία με νονούς και μαφία
       F#m     Em        Bm
σα μυαλά κολλημένα στο τζάμι
 
[Ρεφραίν] x2
 F#m          Bm
Να τα όνειρα πάρ' τα
      D       F#m
τώρα πάνω σε κάρτα
       Em     F#m
θα χτυπάμε αυτά 
        Bm   A
που αγαπάμε
 
[Post Chorus - Απαγγελία]
Ότι θέλεις σου δίνουν το Θεό τους προδίδουν
αν εσύ τους το πεις για φαντάσου
δώσ’ τους ένα πιρούνι και για σένα γουρούνι
την καρδιά τους θα φάνε μπροστά σου

[Γέφυρα]
Bm D F#m D
Bm D Bm

[Κουπλέ]
               Bm
Γεννημένοι σε φάκα γαμημένοι για πλάκα
        F#m       Em     Bm
κάποια νύχτα που είχες ανία
               Bm
σα λυγμός ακροβάτη σαν πορνείου κρεβάτι
        F#m      Em      Bm
που χτυπάς σιωπηλά με μανία

[Ρεφραίν]
 F#m          Bm
Να τα όνειρα πάρ' τα
      D       F#m
τώρα πάνω σε κάρτα
       Em          F#m    Bm      A
θα χτυπάμε ότι αγαπήσαμε φως μου

 F#m           Bm
να τα όνειρα κοίτα
       D         F#m
διαμαντένια προβλήτα
        Em        F#m       Bm
σε μια λίμνη στην άκρη του κόσμου
Κιθάρα, συγχορδίες για το τραγούδι

Διαμαντένια προβλήτα

 
165 προβολές
Δυσκολία: μέτρια
Καποτάστο: 0
πάνω από 2 χρόνια πριν από apostowna
Δίσκος: Βουτιά Από Ψηλά
 
[Εισαγωγή]
   Bm
e|--------------------------------------------------------------------------|
B|--------------------------------------------------------------------------|
G|---------4-7---6-4-----------4-7---6-4-----------4-7---6-4-----------4----|
D|----4-5-----------------4-5-----------------4-5-----------------4-5-------|
A|-2-------------------2-------------------2-------------------2------------|
E|--------------------------------------------------------------------------|
 
[Riff]
   Bm                                      F#m            Em     Bm
e|-----------------------------------------------------------------------|
B|-----------------------------------------------------------------------|
G|---------4-7---6-4-----------4-7---6-4-----------2---------------------|
D|----4-5-----------------4-5-----------------4-5-----5---4-2-4--5--9----|
A|-2-------------------2-------------------------------------------------|
E|-----------------------------------------2-----------------------------|

[Κουπλέ]
       Bm
Ξεγραμμένες μανάδες ξεπεσμένοι μπαμπάδες
        F#m      Em     Bm
χρόνια τώρα νεκροί εραστές
      Bm                    
της ζωής τους ο χώρος σιωπηλή λεωφόρος
        F#m      Em         Bm
που γυρεύει μια πόρτα στο χτες
 
[Ρεφραίν] x2
 F#m          Bm
Να τα όνειρα πάρ' τα
      D       F#m
τώρα πάνω σε κάρτα
       Em     F#m
θα χτυπάμε αυτά 
        Bm   A
που αγαπάμε

[Post Chorus - Απαγγελία]
Γεννημένοι σε φάκα γαμημένοι για πλάκα
κάποια νύχτα που είχες ανία
σα λυγμός ακροβάτη σαν πορνείου κρεβάτι
που χτυπάς σιωπηλά με μανία

[Γέφυρα]
Bm D F#m D
Bm D Bm

[Κουπλέ]
        Bm
Σαν πληγή που δεν κλείνει και το αίμα αφήνει
      F#m      Em     Bm
να κυλά σα φευγάτο ποτάμι
        Bm
σαν κλισέ σε ταινία με νονούς και μαφία
       F#m     Em        Bm
σα μυαλά κολλημένα στο τζάμι
 
[Ρεφραίν] x2
 F#m          Bm
Να τα όνειρα πάρ' τα
      D       F#m
τώρα πάνω σε κάρτα
       Em     F#m
θα χτυπάμε αυτά 
        Bm   A
που αγαπάμε
 
[Post Chorus - Απαγγελία]
Ότι θέλεις σου δίνουν το Θεό τους προδίδουν
αν εσύ τους το πεις για φαντάσου
δώσ’ τους ένα πιρούνι και για σένα γουρούνι
την καρδιά τους θα φάνε μπροστά σου

[Γέφυρα]
Bm D F#m D
Bm D Bm

[Κουπλέ]
               Bm
Γεννημένοι σε φάκα γαμημένοι για πλάκα
        F#m       Em     Bm
κάποια νύχτα που είχες ανία
               Bm
σα λυγμός ακροβάτη σαν πορνείου κρεβάτι
        F#m      Em      Bm
που χτυπάς σιωπηλά με μανία

[Ρεφραίν]
 F#m          Bm
Να τα όνειρα πάρ' τα
      D       F#m
τώρα πάνω σε κάρτα
       Em          F#m    Bm      A
θα χτυπάμε ότι αγαπήσαμε φως μου

 F#m           Bm
να τα όνειρα κοίτα
       D         F#m
διαμαντένια προβλήτα
        Em        F#m       Bm
σε μια λίμνη στην άκρη του κόσμου
Άλλες εκδόσεις:

Πρόσθεσε ένα σχόλιο

Πληροφορίες

Πρόσθεσε και εσύ συγχορδίες στην βιβλιοθήκη του Tabsy

ΔΗΜΟΣΙΕΥΣΗ