Tabsy
tabsy.gr, συγχορδίες για το τραγούδι

Διαμαντένια προβλήτα

Ερμηνευτής: Ενδελεχεια

Μουσική /Στίχοι: Μητσοτακης Δημητρης /Μητσοτακης Δημητρης

Δίσκος: Βουτιά Από Ψηλά
 
[Εισαγωγή]
 B5
--------------------------------------------------------------------------
--------------------------------------------------------------------------
---------4-7---6-4-----------4-7---6-4-----------4-7---6-4-----------4----
----4-5-----------------4-5-----------------4-5-----------------4-5-------
-2-------------------2-------------------2-------------------2------------
--------------------------------------------------------------------------
 
Riff 1:
 B5                  B5                  F#5             E5      B5
-----------------------------------------------------------------------
-----------------------------------------------------------------------
---------4-7---6-4-----------4-7---6-4-----------2---------------------
----4-5-----------------4-5-----------------4-5-----5---4-2-4--5--9----
-2-------------------2-------------------------------------------------
-----------------------------------------2-----------------------------
 
Ξεγραμμένες μανάδες ξεπεσμένοι μπαμπάδες
χρόνια τώρα νεκροί εραστές
B5                     B5
της ζωής τους ο χώρος σιωπηλή λεωφόρος
     F#5         E5        B5
που γυρεύει μια πόρτα στο χτες
 
Ρεφραίν (μαζί με riff 2):
 
F#5           B5
Να τα όνειρα πάρ' τα
     D5       F#
τώρα πάνω σε κάρτα
      E5    F#5        B5         A5 A5
θα χτυπάμε αυτά που αγαπάμε
 
Riff 2a:
------------------------------------------------------------------------------
-7-5-7-5-7-5-7-5-------------------7-5-7-5-7-5-7-5-------------------7-5-7-5--
------------------7-6-7-6-7-6-7-6-------------------7-6-7-6-7-6-7-6-----------
------------------------------------------------------------------------------
------------------------------------------------------------------------------
------------------------------------------------------------------------------
 
---------------------------------
-7-5-7-5-7-5-7-5-7-5-7-5---------
---------------------------------
---------------------------------
---------------------------------
---------------------------------
 
F#5           B5
Να τα όνειρα πάρ' τα
     D5       F#
τώρα πάνω σε κάρτα
      E5    F#5        B5
θα χτυπάμε αυτά που αγαπάμε
 
Riff 2b:
------------------------------------------------------------------------------
-7-5-7-5-7-5-7-5-------------------7-5-7-5-7-5-7-5-------------------7-5-7-5--
------------------7-6-7-6-7-6-7-6-------------------7-6-7-6-7-6-7-6-----------
------------------------------------------------------------------------------
------------------------------------------------------------------------------
------------------------------------------------------------------------------
 
---------------------------------
-7-5-7-5-7-5-7-5-7-5-7-5----7----
---------------------------------
---------------------------------
---------------------------------
---------------------------------
 
Γεννημένοι σε φάκα γαμημένοι για πλάκα
κάποια νύχτα που είχες ανία
σα λυγμός ακροβάτη σαν πορνείου κρεβάτι
που χτυπάς σιωπηλά με μανία
 
Riff 2c:
 B5               D5              F#5               D5               B5
------------------------------------------------------------------------------
-7-5-7-5-7-5-7-5-------------------7-5-7-5-7-5-7-5-------------------7-5-7-5--
------------------7-6-7-6-7-6-7-6-------------------7-6-7-6-7-6-7-6-----------
------------------------------------------------------------------------------
------------------------------------------------------------------------------
------------------------------------------------------------------------------
 
          D5                 B5
----------------------------------------7-7-7--5--7------
-7-5-7-5-----------------------------7--------------7----
----------7-6-7-6-7-6-7-6----4---------------------------
---------------------------------------------------------
---------------------------------------------------------
---------------------------------------------------------
 
Σαν πληγή που δεν κλείνει και το αίμα αφήνει
να κυλά σα φευγάτο ποτάμι
σαν κλισέ σε ταινία με νονούς και μαφία
σα μυαλά κολλημένα στο τζάμι
 
Να τα όνειρα πάρ' τα
τώρα πάνω σε κάρτα
θα χτυπάμε αυτά που αγαπάμε
 
Ότι θέλεις σου δίνουν το Θεό τους προδίδουν
αν εσύ τους το πεις για φαντάσου
δώσ’ τους ένα πιρούνι και για σένα γουρούνι
την καρδιά τους θα φάνε μπροστά σου
 
Γεννημένοι σε φάκα γαμημένοι για πλάκα
κάποια νύχτα που είχες ανία
σα λυγμός ακροβάτη σαν πορνείου κρεβάτι
που χτυπάς σιωπηλά με μανία
 
Να τα όνειρα πάρ' τα
τώρα πάνω σε κάρτα
θα χτυπάμε ότι αγαπήσαμε φως μου
να τα όνειρα κοίτα
διαμαντένια προβλήτα
σε μια λίμνη στην άκρη του κόσμου
Κιθάρα, συγχορδίες για το τραγούδι

Διαμαντένια προβλήτα

 
18 προβολές
Δυσκολία: μέτρια
Καποτάστο: 0
10 μήνες πριν από apostowna
Δίσκος: Βουτιά Από Ψηλά
 
[Εισαγωγή]
 B5
--------------------------------------------------------------------------
--------------------------------------------------------------------------
---------4-7---6-4-----------4-7---6-4-----------4-7---6-4-----------4----
----4-5-----------------4-5-----------------4-5-----------------4-5-------
-2-------------------2-------------------2-------------------2------------
--------------------------------------------------------------------------
 
Riff 1:
 B5                  B5                  F#5             E5      B5
-----------------------------------------------------------------------
-----------------------------------------------------------------------
---------4-7---6-4-----------4-7---6-4-----------2---------------------
----4-5-----------------4-5-----------------4-5-----5---4-2-4--5--9----
-2-------------------2-------------------------------------------------
-----------------------------------------2-----------------------------
 
Ξεγραμμένες μανάδες ξεπεσμένοι μπαμπάδες
χρόνια τώρα νεκροί εραστές
B5                     B5
της ζωής τους ο χώρος σιωπηλή λεωφόρος
     F#5         E5        B5
που γυρεύει μια πόρτα στο χτες
 
Ρεφραίν (μαζί με riff 2):
 
F#5           B5
Να τα όνειρα πάρ' τα
     D5       F#
τώρα πάνω σε κάρτα
      E5    F#5        B5         A5 A5
θα χτυπάμε αυτά που αγαπάμε
 
Riff 2a:
------------------------------------------------------------------------------
-7-5-7-5-7-5-7-5-------------------7-5-7-5-7-5-7-5-------------------7-5-7-5--
------------------7-6-7-6-7-6-7-6-------------------7-6-7-6-7-6-7-6-----------
------------------------------------------------------------------------------
------------------------------------------------------------------------------
------------------------------------------------------------------------------
 
---------------------------------
-7-5-7-5-7-5-7-5-7-5-7-5---------
---------------------------------
---------------------------------
---------------------------------
---------------------------------
 
F#5           B5
Να τα όνειρα πάρ' τα
     D5       F#
τώρα πάνω σε κάρτα
      E5    F#5        B5
θα χτυπάμε αυτά που αγαπάμε
 
Riff 2b:
------------------------------------------------------------------------------
-7-5-7-5-7-5-7-5-------------------7-5-7-5-7-5-7-5-------------------7-5-7-5--
------------------7-6-7-6-7-6-7-6-------------------7-6-7-6-7-6-7-6-----------
------------------------------------------------------------------------------
------------------------------------------------------------------------------
------------------------------------------------------------------------------
 
---------------------------------
-7-5-7-5-7-5-7-5-7-5-7-5----7----
---------------------------------
---------------------------------
---------------------------------
---------------------------------
 
Γεννημένοι σε φάκα γαμημένοι για πλάκα
κάποια νύχτα που είχες ανία
σα λυγμός ακροβάτη σαν πορνείου κρεβάτι
που χτυπάς σιωπηλά με μανία
 
Riff 2c:
 B5               D5              F#5               D5               B5
------------------------------------------------------------------------------
-7-5-7-5-7-5-7-5-------------------7-5-7-5-7-5-7-5-------------------7-5-7-5--
------------------7-6-7-6-7-6-7-6-------------------7-6-7-6-7-6-7-6-----------
------------------------------------------------------------------------------
------------------------------------------------------------------------------
------------------------------------------------------------------------------
 
          D5                 B5
----------------------------------------7-7-7--5--7------
-7-5-7-5-----------------------------7--------------7----
----------7-6-7-6-7-6-7-6----4---------------------------
---------------------------------------------------------
---------------------------------------------------------
---------------------------------------------------------
 
Σαν πληγή που δεν κλείνει και το αίμα αφήνει
να κυλά σα φευγάτο ποτάμι
σαν κλισέ σε ταινία με νονούς και μαφία
σα μυαλά κολλημένα στο τζάμι
 
Να τα όνειρα πάρ' τα
τώρα πάνω σε κάρτα
θα χτυπάμε αυτά που αγαπάμε
 
Ότι θέλεις σου δίνουν το Θεό τους προδίδουν
αν εσύ τους το πεις για φαντάσου
δώσ’ τους ένα πιρούνι και για σένα γουρούνι
την καρδιά τους θα φάνε μπροστά σου
 
Γεννημένοι σε φάκα γαμημένοι για πλάκα
κάποια νύχτα που είχες ανία
σα λυγμός ακροβάτη σαν πορνείου κρεβάτι
που χτυπάς σιωπηλά με μανία
 
Να τα όνειρα πάρ' τα
τώρα πάνω σε κάρτα
θα χτυπάμε ότι αγαπήσαμε φως μου
να τα όνειρα κοίτα
διαμαντένια προβλήτα
σε μια λίμνη στην άκρη του κόσμου

Πρόσθεσε ένα σχόλιο

Πληροφορίες

Πρόσθεσε και εσύ συγχορδίες στην βιβλιοθήκη του Tabsy

ΔΗΜΟΣΙΕΥΣΗ