Tabsy
tabsy.gr, συγχορδίες για το τραγούδι

Κατάδικος

Ερμηνευτής: Ενδελεχεια

Μουσική /Στίχοι: Κατσιμανης Παναγιωτης /Μητσοτακης Δημητρης

Dm                                   Am
Αγγίζω πρόσωπα που χάνονται τη νύχτα
Dm                                 Am
μιλώ σε σώματα που σβήνουν την αυγή
Dm                                        Am
κι ενώ δε νοιώθω ούτε χαρά ούτε και πίκρα
Dm                                    Am
ζητώ και παίρνω μιαν ανάσα σαν κραυγή
 
A5                                     B5
Κι είναι μετά που παίρνει ο άνεμος φωτιά
B5                                     C5
κι είναι μετά που παίρνει ο άνεμος φωτιά
C5        B5                        C5
και σαν ομίχλη αγκαλιάζει το φεγγάρι
 
Κρατώ τα σχήματα και χάνω την ουσία
μοιάζω με πλαστικό τοπίο - τι να πω
Κάποτε γίνομαι θεός, πότε θυσία
κι όμως δεν έμαθα ακόμα ν' αγαπώ
 
Κι είναι μετά που παίρνει ο άνεμος φωτιά
κι είναι μετά που παίρνει ο άνεμος φωτιά
και σαν ομίχλη αγκαλιάζει το φεγγάρι
 
Χωρίζω έτσι τη ζωή απ' τη ζωή μου
κι έχω γι' αντάλλαγμα μια όψη σιγουριάς
μα κάθε νύχτα συναντώ μες στο κορμί μου
έναν κατάδικο στη θέση της καρδιάς
 
[Solo]
|---------------------------------------------------------------------------------|
|---------------------------------------------------------------------------------|
|-----------------2----2------------------2h3p2-3-2----------2h3p2-3-2------------|
|-3-2-0-3----------3----2-0-3-------2-----------------0-------------------0-------|
|-----------3-0------------------3-0----------------------3-0-----------------3-0-|
|---------------------------------------------------------------------------------|
 
Κιθάρα, συγχορδίες για το τραγούδι

Κατάδικος

 
11 προβολές
πάνω από 1 χρόνο πριν από galhnos
Dm                                   Am
Αγγίζω πρόσωπα που χάνονται τη νύχτα
Dm                                 Am
μιλώ σε σώματα που σβήνουν την αυγή
Dm                                        Am
κι ενώ δε νοιώθω ούτε χαρά ούτε και πίκρα
Dm                                    Am
ζητώ και παίρνω μιαν ανάσα σαν κραυγή
 
A5                                     B5
Κι είναι μετά που παίρνει ο άνεμος φωτιά
B5                                     C5
κι είναι μετά που παίρνει ο άνεμος φωτιά
C5        B5                        C5
και σαν ομίχλη αγκαλιάζει το φεγγάρι
 
Κρατώ τα σχήματα και χάνω την ουσία
μοιάζω με πλαστικό τοπίο - τι να πω
Κάποτε γίνομαι θεός, πότε θυσία
κι όμως δεν έμαθα ακόμα ν' αγαπώ
 
Κι είναι μετά που παίρνει ο άνεμος φωτιά
κι είναι μετά που παίρνει ο άνεμος φωτιά
και σαν ομίχλη αγκαλιάζει το φεγγάρι
 
Χωρίζω έτσι τη ζωή απ' τη ζωή μου
κι έχω γι' αντάλλαγμα μια όψη σιγουριάς
μα κάθε νύχτα συναντώ μες στο κορμί μου
έναν κατάδικο στη θέση της καρδιάς
 
[Solo]
|---------------------------------------------------------------------------------|
|---------------------------------------------------------------------------------|
|-----------------2----2------------------2h3p2-3-2----------2h3p2-3-2------------|
|-3-2-0-3----------3----2-0-3-------2-----------------0-------------------0-------|
|-----------3-0------------------3-0----------------------3-0-----------------3-0-|
|---------------------------------------------------------------------------------|
 

Πρόσθεσε ένα σχόλιο

Πληροφορίες

Πρόσθεσε και εσύ συγχορδίες στην βιβλιοθήκη του Tabsy

ΔΗΜΟΣΙΕΥΣΗ