Tabsy
tabsy.gr, συγχορδίες για το τραγούδι

Ο έρωτας

Ερμηνευτής: Ενδελεχεια

Μουσική /Στίχοι: Μητσοτακης Δημητρης /Μητσοτακης Δημητρης

[Εισαγωγή]
Bm D
 
|------------------------------------------
|------------------------------------------
|------------------------------------------
|-----------------------------6-6---------
|---5--7--7--5--7--5-7--5---------------
|------------------------------------------
     x    x   x   x   x   x   x  x     x  x
 
|------------------------------------------------
|------------------------------8--7-6--5--4----
|------------------------------------------------
|------------------------------------------------
|---5--7--7--5--7--5-7-------------------------
|------------------------------------------------
     x   x    x   x   x    x  x
 
[Riff]
|----~6---~5/4----~3--~2------------~10--~9--~12b--(10)-
|-----------------------------4-------------------------------
|------------------------------------------------------------
|-------------------------------------------------------------
|-------------------------------------------------------------
|-------------------------------------------------------------
 
Δεν είναι υπόθεση ο έρωτας φτηνών σουξέ
Δεν είναι της μαθήτριας το πρώτο δάκρυ
Είναι απειλή - είναι ζημιά
Δεν είναι βάρκα με καρδιές στην άκρη
 
Em               G
Είναι σιωπή - Είναι φωτιά
Bm                                                  Em
Είναι αυτός που καίγεται στη μέση της πλατείας
Em               G
Είναι σιωπή - Είναι φωτιά
 
Είναι σιωπή - Είναι φωτιά
Είναι αυτός που φεύγει πριν το τέλος της ταινίας
Είναι θεός κι εγκληματίας
Είναι σιωπή - Είναι φωτιά
 
Ο έρωτας βουτάει απ' τις ταράτσες στο κενό
Χώνει το χέρι σε νερό, νερό που βράζει
Δεν έχει σώμα, ούτε μυαλό
Δεν αρρωσταίνει - δεν πονάει - δε δειλιάζει
 
Ο έρωτας δεν είναι η μελωδία που θα φας
ούτε μπουκέτο με λουλούδια να στολίσεις
Τραβάει μακριά - καθώς τραβάς
απ' το συρτάρι της καρδιάς δυο μάτσα αναμνήσεις
 
Δεν είναι  μπόμπα  σε σκυλάδικο ο έρωτας
ούτε ο εύχαρις και πλούσιος μαλάκας
Είναι αυτόχειρας φυγάς
 
Κιθάρα, συγχορδίες για το τραγούδι

Ο έρωτας

 
12 προβολές
Δυσκολία: μέτρια
Καποτάστο: 0
πάνω από 1 χρόνο πριν από magda99
[Εισαγωγή]
Bm D
 
|------------------------------------------
|------------------------------------------
|------------------------------------------
|-----------------------------6-6---------
|---5--7--7--5--7--5-7--5---------------
|------------------------------------------
     x    x   x   x   x   x   x  x     x  x
 
|------------------------------------------------
|------------------------------8--7-6--5--4----
|------------------------------------------------
|------------------------------------------------
|---5--7--7--5--7--5-7-------------------------
|------------------------------------------------
     x   x    x   x   x    x  x
 
[Riff]
|----~6---~5/4----~3--~2------------~10--~9--~12b--(10)-
|-----------------------------4-------------------------------
|------------------------------------------------------------
|-------------------------------------------------------------
|-------------------------------------------------------------
|-------------------------------------------------------------
 
Δεν είναι υπόθεση ο έρωτας φτηνών σουξέ
Δεν είναι της μαθήτριας το πρώτο δάκρυ
Είναι απειλή - είναι ζημιά
Δεν είναι βάρκα με καρδιές στην άκρη
 
Em               G
Είναι σιωπή - Είναι φωτιά
Bm                                                  Em
Είναι αυτός που καίγεται στη μέση της πλατείας
Em               G
Είναι σιωπή - Είναι φωτιά
 
Είναι σιωπή - Είναι φωτιά
Είναι αυτός που φεύγει πριν το τέλος της ταινίας
Είναι θεός κι εγκληματίας
Είναι σιωπή - Είναι φωτιά
 
Ο έρωτας βουτάει απ' τις ταράτσες στο κενό
Χώνει το χέρι σε νερό, νερό που βράζει
Δεν έχει σώμα, ούτε μυαλό
Δεν αρρωσταίνει - δεν πονάει - δε δειλιάζει
 
Ο έρωτας δεν είναι η μελωδία που θα φας
ούτε μπουκέτο με λουλούδια να στολίσεις
Τραβάει μακριά - καθώς τραβάς
απ' το συρτάρι της καρδιάς δυο μάτσα αναμνήσεις
 
Δεν είναι  μπόμπα  σε σκυλάδικο ο έρωτας
ούτε ο εύχαρις και πλούσιος μαλάκας
Είναι αυτόχειρας φυγάς
 

Πρόσθεσε ένα σχόλιο

Πληροφορίες

Πρόσθεσε και εσύ συγχορδίες στην βιβλιοθήκη του Tabsy

ΔΗΜΟΣΙΕΥΣΗ