Tabsy
tabsy.gr, συγχορδίες για το τραγούδι

Τι τραγούδι να σου πω

Ερμηνευτής: Ενδελεχεια

Μουσική /Στίχοι: Ενδελεχεια /Μητσοτακης Δημητρης

[Γέμισμα 1]
e|----------------------|
B|----------------------|
G|------4-6------4-6----|
D|--4-7------4-7--------|
A|----------------------|
E|----------------------|
 
[Intro]  2x
 
   F#m         D           Bm          F#m
e|--9--10--9-7------7------------------------------------|
B|--------------10----10-9--7--9--7-----7----------------|
G|----------------------------------9-7--------6/7-6/4---|
D|-----------------------------------------4/7-----------|
A|-------------------------------------------------------|
E|-------------------------------------------------------|
 
        E                        C#m
Τι τραγούδι να σου πω που να σε ξέρει
           E                       F#m
Να 'ναι εκεί όταν γελάς κι όταν φοβάσαι
           E                       C#m
Να 'ναι εκεί όταν μεθάς κι όταν λυπάσαι
          E            Bm         F#m
Κι όταν κρύβεσαι στης μοναξιάς τα μέρη
 
[Γέμισμα 2]
e|-----------------------------|
B|------------10-7-------------|
G|----4-6-9-6------------------|
D|--7--------------------------|
A|-----------------------------|
E|-----------------------------|
 
A            E          Bm
Τι τραγούδι να σου πω εκεί που πας
          E         F#m
να μην μοιάζει με κανένα
 
[Γέμισμα 2]
 
A            E          Bm
Τι τραγούδι να σου πω εκεί που πας
         C#m         E      F#m
μα να μοιάζει μ' όλα όσα αγαπάς
 
[Intro]  2x
 
Τι τραγούδι να σου πω που να 'χει αέρα
Σαν κι αυτά μες τις κασέτες που 'χουν λιώσει
Γιατί πάτησαν το χρόνο όσοι έχουν νιώσει
Πήραν σήκωσαν το φως κι εδώ το φέραν
 
[Γέμισμα 2]
 
Τι τραγούδι να σου πω εκεί που πας
να μην μοιάζει με κανένα
 
[Γέμισμα 2]
 
Τι τραγούδι να σου πω εκεί που πας
μα να μοιάζει μ' όλα όσα αγαπάς
 
[Intro]  2x
 
        E                     C#m
Τι τραγούδι να σου πω χωρίς ουσία
        E                          F#m
Να το φτύνουν οι σοφοί κι οι μπερδεμένοι
        E                        C#m
Να γεννιέται στα ρηχά κι εκεί να μένει
       E                     Bm
Να μην έχει ούτε λάμψη ούτε αξία
       C#m          E           F#m
Μα να φέγγει στη δική σου καταχνιά
 
[Γέμισμα 2]
Κιθάρα, συγχορδίες για το τραγούδι

Τι τραγούδι να σου πω

 
27 προβολές
Δυσκολία: μέτρια
Καποτάστο: 0
11 μήνες πριν από kanelou
[Γέμισμα 1]
e|----------------------|
B|----------------------|
G|------4-6------4-6----|
D|--4-7------4-7--------|
A|----------------------|
E|----------------------|
 
[Intro]  2x
 
   F#m         D           Bm          F#m
e|--9--10--9-7------7------------------------------------|
B|--------------10----10-9--7--9--7-----7----------------|
G|----------------------------------9-7--------6/7-6/4---|
D|-----------------------------------------4/7-----------|
A|-------------------------------------------------------|
E|-------------------------------------------------------|
 
        E                        C#m
Τι τραγούδι να σου πω που να σε ξέρει
           E                       F#m
Να 'ναι εκεί όταν γελάς κι όταν φοβάσαι
           E                       C#m
Να 'ναι εκεί όταν μεθάς κι όταν λυπάσαι
          E            Bm         F#m
Κι όταν κρύβεσαι στης μοναξιάς τα μέρη
 
[Γέμισμα 2]
e|-----------------------------|
B|------------10-7-------------|
G|----4-6-9-6------------------|
D|--7--------------------------|
A|-----------------------------|
E|-----------------------------|
 
A            E          Bm
Τι τραγούδι να σου πω εκεί που πας
          E         F#m
να μην μοιάζει με κανένα
 
[Γέμισμα 2]
 
A            E          Bm
Τι τραγούδι να σου πω εκεί που πας
         C#m         E      F#m
μα να μοιάζει μ' όλα όσα αγαπάς
 
[Intro]  2x
 
Τι τραγούδι να σου πω που να 'χει αέρα
Σαν κι αυτά μες τις κασέτες που 'χουν λιώσει
Γιατί πάτησαν το χρόνο όσοι έχουν νιώσει
Πήραν σήκωσαν το φως κι εδώ το φέραν
 
[Γέμισμα 2]
 
Τι τραγούδι να σου πω εκεί που πας
να μην μοιάζει με κανένα
 
[Γέμισμα 2]
 
Τι τραγούδι να σου πω εκεί που πας
μα να μοιάζει μ' όλα όσα αγαπάς
 
[Intro]  2x
 
        E                     C#m
Τι τραγούδι να σου πω χωρίς ουσία
        E                          F#m
Να το φτύνουν οι σοφοί κι οι μπερδεμένοι
        E                        C#m
Να γεννιέται στα ρηχά κι εκεί να μένει
       E                     Bm
Να μην έχει ούτε λάμψη ούτε αξία
       C#m          E           F#m
Μα να φέγγει στη δική σου καταχνιά
 
[Γέμισμα 2]

Πρόσθεσε ένα σχόλιο

Πληροφορίες

Πρόσθεσε και εσύ συγχορδίες στην βιβλιοθήκη του Tabsy

ΔΗΜΟΣΙΕΥΣΗ