Tabsy
tabsy.gr, συγχορδίες για το τραγούδι

Φωτογραφίες

Ερμηνευτής: Ενοχο Λα

Μουσική /Στίχοι: Ενοχο Λα /Ενοχο Λα

[Εισαγωγή]
    C                                      F
e|--------------------------|--------------------------||
B|-----------1-----------1--|--------------------1-----||
G|--------0--------0--------|-----0-----0-----2--------||   ] 2x
D|-----2--------2-----2-----|--------2-----3-----------||
A|--3-----------------------|-----------------------0--||
E|--------------------------|--------------------------||
 
C
Ήπια δάκρυα της αγάπης
G
της αλήθειας το κρασί
F          Fm        C     F
γέμισα τη νύχτα ακροβάτες
Ο καιρός που με ξεχνούσε
ήσουν πάντα εσύ
μέσα στους αδιάφορους διαβάτες
 
Άλλαξαν σημαίες και κράτη
άλλαξαν πολλά
τόσα χρόνια που ‘σαι μακριά μου
όμως κράτησα και κάτι
όσο πιο καλά μπορούσα πριν φύγεις
για να ‘σαι εδώ κοντά μου

[Ρεφραίν]
F                      G
Πόσο μικρή μες στο μυαλό σου η νύχτα θα κουρνιάσει
F       Fm        C               F     C
πόσο μικρή η μέρα ήλιε, για να σ’ αγκαλιάσει
 
Κι ας βραδιάζει, κι ας χαράζει
κι ας πηγαίνει κι εκδρομή
κι ας γεμίζει τα τραγούδια γκρίζο
Είναι που ξεχάστηκα
σε λάθος εποχή
και τη μέρα πια δεν την ορίζω
 
[Ρεφραίν]
F                      G
Πόσο μικρή μες στο μυαλό σου η νύχτα θα κουρνιάσει
F       Fm        C               F     C
πόσο μικρή η μέρα ήλιε, για να σ’ αγκαλιάσει

[Solo]
 
[Ρεφραίν]
F                      G
Πόσο μικρή μες στο μυαλό σου η νύχτα θα κουρνιάσει
F       Fm        C               F     C
πόσο μικρή η μέρα ήλιε, για να σ’ αγκαλιάσει
 
[Solo]
                            C                                                 G
e|----------------------|--------------------|----------------------------|---------0------------|
B|----------------------|--------------------|----------------------------|----------------------|
G|----------------------|--------------------|--7/12--12--12----10----9---|--7-----------7-------|
D|----------------------|--------------------|--9/14--14--14----12---10---|--9--------------9----|
A|--------------0---2---|--2/3---------------|----------------------------|----------------------|
E|----------------------|--------------------|----------------------------|----------------------|
 
                               F                       Fm                     C
e|---------------------------|---------0-------------|---------0------------|--------------------|
B|---------------------------|-----------------------|----------------------|--------------------|
G|--7/10--10--10-----9---7---|--5-----------5--4p5---|--5-----------7---7---|--7/9---------------|
D|--9/12--12--12----10---9---|--7--------------------|--6-------------------|--------------------|
A|---------------------------|-----------------------|----------------------|--------------------|
E|---------------------------|-----------------------|----------------------|--------------------|
 
                            C                                                 G
e|------------------------|--------------------|----------------------------|---------0------------|
B|------------------------|--------------------|----------------------------|----------------------|
G|---------------9---10---|--10/12-------------|--7/12--12--12----10----9---|--7-----------7-------|
D|--------------10---12---|--12/14-------------|--9/14--14--14----12---10---|--9--------------9----|
A|------------------------|--------------------|----------------------------|----------------------|
E|------------------------|--------------------|----------------------------|----------------------|
 
                               F                       Fm                     C
e|---------------------------|---------0-------------|---------0------------|--------------------|
B|---------------------------|-----------------------|----------------------|--------------------|
G|--7/10--10--10-----9---7---|--5-----------5--4p5---|--5-----------4---4---|--4/5---------------|
D|--9/12--12--12----10---9---|--7--------------------|--6-----------5---5---|--5-----------------|
A|---------------------------|-----------------------|----------------------|--------------------|
E|---------------------------|-----------------------|----------------------|--------------------|
 
                                     F
e|---------------10p-8-10p-8-------|---------------------||
B|---------------------------10p-8-|--8/10~~~------------||
G|---------------------------------|---------------------||
D|---------------------------------|---------------------||
A|---------------------------------|---------------------||
E|---------------------------------|---------------------||

[Ρεφραίν]
F                      G
Πόσο μικρή μες στο μυαλό σου η νύχτα θα κουρνιάσει
F       Fm        C               F     C
πόσο μικρή η μέρα ήλιε, για να σ’ αγκαλιάσει
Κιθάρα, συγχορδίες για το τραγούδι

Φωτογραφίες

 
5 προβολές
Δυσκολία: μέτρια
Καποτάστο: 0
12 μήνες πριν από magda99
[Εισαγωγή]
    C                                      F
e|--------------------------|--------------------------||
B|-----------1-----------1--|--------------------1-----||
G|--------0--------0--------|-----0-----0-----2--------||   ] 2x
D|-----2--------2-----2-----|--------2-----3-----------||
A|--3-----------------------|-----------------------0--||
E|--------------------------|--------------------------||
 
C
Ήπια δάκρυα της αγάπης
G
της αλήθειας το κρασί
F          Fm        C     F
γέμισα τη νύχτα ακροβάτες
Ο καιρός που με ξεχνούσε
ήσουν πάντα εσύ
μέσα στους αδιάφορους διαβάτες
 
Άλλαξαν σημαίες και κράτη
άλλαξαν πολλά
τόσα χρόνια που ‘σαι μακριά μου
όμως κράτησα και κάτι
όσο πιο καλά μπορούσα πριν φύγεις
για να ‘σαι εδώ κοντά μου

[Ρεφραίν]
F                      G
Πόσο μικρή μες στο μυαλό σου η νύχτα θα κουρνιάσει
F       Fm        C               F     C
πόσο μικρή η μέρα ήλιε, για να σ’ αγκαλιάσει
 
Κι ας βραδιάζει, κι ας χαράζει
κι ας πηγαίνει κι εκδρομή
κι ας γεμίζει τα τραγούδια γκρίζο
Είναι που ξεχάστηκα
σε λάθος εποχή
και τη μέρα πια δεν την ορίζω
 
[Ρεφραίν]
F                      G
Πόσο μικρή μες στο μυαλό σου η νύχτα θα κουρνιάσει
F       Fm        C               F     C
πόσο μικρή η μέρα ήλιε, για να σ’ αγκαλιάσει

[Solo]
 
[Ρεφραίν]
F                      G
Πόσο μικρή μες στο μυαλό σου η νύχτα θα κουρνιάσει
F       Fm        C               F     C
πόσο μικρή η μέρα ήλιε, για να σ’ αγκαλιάσει
 
[Solo]
                            C                                                 G
e|----------------------|--------------------|----------------------------|---------0------------|
B|----------------------|--------------------|----------------------------|----------------------|
G|----------------------|--------------------|--7/12--12--12----10----9---|--7-----------7-------|
D|----------------------|--------------------|--9/14--14--14----12---10---|--9--------------9----|
A|--------------0---2---|--2/3---------------|----------------------------|----------------------|
E|----------------------|--------------------|----------------------------|----------------------|
 
                               F                       Fm                     C
e|---------------------------|---------0-------------|---------0------------|--------------------|
B|---------------------------|-----------------------|----------------------|--------------------|
G|--7/10--10--10-----9---7---|--5-----------5--4p5---|--5-----------7---7---|--7/9---------------|
D|--9/12--12--12----10---9---|--7--------------------|--6-------------------|--------------------|
A|---------------------------|-----------------------|----------------------|--------------------|
E|---------------------------|-----------------------|----------------------|--------------------|
 
                            C                                                 G
e|------------------------|--------------------|----------------------------|---------0------------|
B|------------------------|--------------------|----------------------------|----------------------|
G|---------------9---10---|--10/12-------------|--7/12--12--12----10----9---|--7-----------7-------|
D|--------------10---12---|--12/14-------------|--9/14--14--14----12---10---|--9--------------9----|
A|------------------------|--------------------|----------------------------|----------------------|
E|------------------------|--------------------|----------------------------|----------------------|
 
                               F                       Fm                     C
e|---------------------------|---------0-------------|---------0------------|--------------------|
B|---------------------------|-----------------------|----------------------|--------------------|
G|--7/10--10--10-----9---7---|--5-----------5--4p5---|--5-----------4---4---|--4/5---------------|
D|--9/12--12--12----10---9---|--7--------------------|--6-----------5---5---|--5-----------------|
A|---------------------------|-----------------------|----------------------|--------------------|
E|---------------------------|-----------------------|----------------------|--------------------|
 
                                     F
e|---------------10p-8-10p-8-------|---------------------||
B|---------------------------10p-8-|--8/10~~~------------||
G|---------------------------------|---------------------||
D|---------------------------------|---------------------||
A|---------------------------------|---------------------||
E|---------------------------------|---------------------||

[Ρεφραίν]
F                      G
Πόσο μικρή μες στο μυαλό σου η νύχτα θα κουρνιάσει
F       Fm        C               F     C
πόσο μικρή η μέρα ήλιε, για να σ’ αγκαλιάσει

Πρόσθεσε ένα σχόλιο

Πληροφορίες

Πρόσθεσε και εσύ συγχορδίες στην βιβλιοθήκη του Tabsy

ΔΗΜΟΣΙΕΥΣΗ