Tabsy
tabsy.gr, συγχορδίες για το τραγούδι

Στο τέλος του Μάη

Ερμηνευτής: Ιωαννιδης Αλκινοος

Μουσική /Στίχοι: Ιωαννιδης Αλκινοος /Ιωαννιδης Αλκινοος

Capo: 2ο τάστο

Capo: 2
 
E|-------0--3----7-5-2------0(1)0---/5---0(1)0(1)0-/8-7---8----8-/12----
B|-----1---3----------------------3----3--------------------10----------
G|---2---------5--------------------------------------------------------
D|-------------7-----0--0(2)3-------------------------------------------
A|---0---------7------------------0-----------------0-------------0-----
E|---------3---5-----------------------0-----0----------0---------------
 
E|---15-12-------12--------------------8-/12--10-12-----5---------------
B|---------13-15----13--10---------10---------------12--5---------------
G|------------------------------------------------------5---------------
D|------------------------------------------------------7---------------
A|-0--------------------8--7------------------0---------7---------------
E|------------0---------------8--7-0--------------------5---------------
 
Am     G       Am      D    Fmaj7       G         Am
Έλα πρωί μου, ξύπνα καλή μου, μέσα στην μέρα που σκάει
Am          G      Am        D         Fmaj7  G      Am
Μυρίζει ο δυόσμος, άνοιξε ο κόσμος, κι ένα αεράκι φυσάει
 
F  G  Am
 
   Dm      G     Am       Em    Fmaj7     G          Fmaj
Κι όταν μεθύσεις να μου χαρίσεις, ένα τραγούδι που σπάει
               G      Am
Τα χείλη σου και ξεψυχάει
 
Έλα μαζί μου, όλη η ζωή μου απ' όνειρο σ' όνειρο πάει
Πήρα τη μέρα στη φόρεσα βέρα, στο δάχτυλο να σε πονάει
Κι αν μ' αγαπήσεις μη με κρατήσεις γιατί στο τέλος του Μάη
Θα γίνω πουλί που πετάει
 
Κιθάρα, συγχορδίες για το τραγούδι

Στο τέλος του Μάη

 
3 προβολές
Δυσκολία: μέτρια
Καποτάστο: 2
10 μήνες πριν από efraimoy
Capo: 2
 
E|-------0--3----7-5-2------0(1)0---/5---0(1)0(1)0-/8-7---8----8-/12----
B|-----1---3----------------------3----3--------------------10----------
G|---2---------5--------------------------------------------------------
D|-------------7-----0--0(2)3-------------------------------------------
A|---0---------7------------------0-----------------0-------------0-----
E|---------3---5-----------------------0-----0----------0---------------
 
E|---15-12-------12--------------------8-/12--10-12-----5---------------
B|---------13-15----13--10---------10---------------12--5---------------
G|------------------------------------------------------5---------------
D|------------------------------------------------------7---------------
A|-0--------------------8--7------------------0---------7---------------
E|------------0---------------8--7-0--------------------5---------------
 
Am     G       Am      D    Fmaj7       G         Am
Έλα πρωί μου, ξύπνα καλή μου, μέσα στην μέρα που σκάει
Am          G      Am        D         Fmaj7  G      Am
Μυρίζει ο δυόσμος, άνοιξε ο κόσμος, κι ένα αεράκι φυσάει
 
F  G  Am
 
   Dm      G     Am       Em    Fmaj7     G          Fmaj
Κι όταν μεθύσεις να μου χαρίσεις, ένα τραγούδι που σπάει
               G      Am
Τα χείλη σου και ξεψυχάει
 
Έλα μαζί μου, όλη η ζωή μου απ' όνειρο σ' όνειρο πάει
Πήρα τη μέρα στη φόρεσα βέρα, στο δάχτυλο να σε πονάει
Κι αν μ' αγαπήσεις μη με κρατήσεις γιατί στο τέλος του Μάη
Θα γίνω πουλί που πετάει
 

Πρόσθεσε ένα σχόλιο

Πληροφορίες

Πρόσθεσε και εσύ συγχορδίες στην βιβλιοθήκη του Tabsy

ΔΗΜΟΣΙΕΥΣΗ