Κιθάρα, συγχορδίες για το τραγούδι

Αδρεναλίνη

 
21 προβολές
Δυσκολία: μέτρια
Καποτάστο: 0
8 μήνες πριν από kmenadhs
[Εισαγωγή]
e|---------------------------------------------------|
B|---------------------------------------------------|
G|---------------------------------------------------|
D|---------------------------------------------------|
A|-----------------3-----------------------3---------|
E|--0--3--5--5--5----5--5----0--3--5--5-5-----5------|
 
[Riff]
   A
e|-------------------------------------------|
B|-------------------------------------------|
G|-------------------------------------------|
D|-------------------------------------------|
A|--------3-----------------------3----------|
E|--5--5-----5--5--5--0--3--5--5--------5----|

[Κουπλέ]
A5                                                          A5  riff
Θες να με κάνεις να πιστέψω πως τελειώσαν όλα κι ήρθε ο καιρός
A5                                              A5 riff
Να τη ξεχάσω τη ζωή και να ξυπνάω κάθε μέρα νεκρός

[Ρεφραίν]
G5                            A5  riff
Όσο και αν το θέλεις δεν μπορείς
   F5       G5         A5 riff
Ταξίδι στο κέντρο της Γης
   F5       G5         A5 riff
Ταξίδι στο κέντρο της Γης

[Κουπλέ]
A5                                                     riff
Ψάχνεις την άκρη τα μπερδεύεις και νομίζεις ότι όλα μηδέν
A5                                                     riff
Φταίει η μαμά που σου πουλάει παραμύθι ότι δήθεν και δεν

[Ρεφραίν]
  G5                         A5 riff
Πριν απ' τα μεσάνυχτα να 'ρθεις
   F5       G5         A5 riff
ταξίδι στο κέντρο της Γης
   F5       G5         A5 riff
Ταξίδι στο κέντρο της Γης
 
[Solo] 
B5 A5 

[Κουπλέ]
B5
Αδρεναλίνη κανένας δεν θα μείνει
A5
Μαύρη κατάρα ανία βαρεμάρα
B5
  Η μέρα σβήνει Αθήνα είσαι καμίνι
A5
  Ώσπου να φέξει να δούμε ποιος θα αντέξει
 
D5 A5 
D5 A5 
C5 G5 
C5 G5
 
[Κουπλέ]
A5                                                riff
Το ξέρω κάποτε τελειώνουν όλα κάποτε μα πότε, ποτέ
A5                                               riff
Κάθε πρωί και κάθε βράδυ κάθε μέρα κάθε νύχτα ποτέ

[Ρεφραίν]
  G5                         A5 riff
Πριν απ' τα μεσάνυχτα να 'ρθεις
   F5       G5         A5 riff
ταξίδι στο κέντρο της Γης
   F5       G5         A5 riff
Ταξίδι στο κέντρο της Γης

[Κουπλέ]
A5                                                       riff
Θα πάρω φόρα να περάσω τον μεγάλο που 'χεις σκάψει γκρεμό
A5                                                        riff
Κι αν το ξεχάσεις μια φορά χίλιες φορές θα στο πω σ' αγαπώ

[Ρεφραίν]
  G5                         A5 riff
Πριν απ' τα μεσάνυχτα να 'ρθεις
   F5       G5         A5 riff
ταξίδι στο κέντρο της Γης
   F5       G5         A5 riff
Ταξίδι στο κέντρο της Γης

Πρόσθεσε ένα σχόλιο

Πληροφορίες

Πρόσθεσε και εσύ συγχορδίες στην βιβλιοθήκη του Tabsy

ΔΗΜΟΣΙΕΥΣΗ