Tabsy
tabsy.gr, συγχορδίες για το τραγούδι

Αλλάζει πρόσωπα η θλίψη

Ερμηνευτής: Ξυλινα Σπαθια

Μουσική /Στίχοι: Ξυλινα Σπαθια /Παυλιδης Παυλος

[Εισαγωγή]
Bm G
 
|-----------------------------------------|
|-----------------------------------------|
|-----------------------------------------|
|----------0--------------------0---------|
|--2----------4--0----2------------4--0---|
|-----3-------------------3---------------|

Bm              G
Αλλάζει πρόσωπα η θλίψη
Bm                 G
ένα κορίτσι με κοιτάει
Bm                 G
χορεύει, κι ύστερα πετάει
Bm                     G
πάνω απ' τα μπαρ και τα ηχεία
Bm                 G
Δεν έχει τίποτα να κρύψει
Bm                 G
καμιά φορά αντί να κλαίει
Bm                    G
χορεύει, κι είναι σαν να λέει
Bm          A              G
σπάστε την πόρτα αν δεν ανοίξει
 
Riff1

Bm              G
Αλλάζει πρόσωπα η θλίψη
Bm               G
μαζεύει πίσω τα μαλλιά της
Bm                  G
θυμίζεις μια μικρή κυρία
Bm                 G
που όλο ξεχνάω τ' όνομα της
Bm                      G
Ποιος θα τα βάλει με τη θλίψη
Bm               G
όσο αντιστέκεται νικάει
Bm                         G
σ' όποιον τη ρίχνει από το θρόνο
Bm     A         G
εσένα λέει θέλω μόνο
 
Solo
 
Bm                G
Όταν τελειώνει η συναυλία
Bm                    G
κάτι παιδιά έρχονται κοντά μου
Bm                G
στα σκονισμένα της αρχεία
Bm                G
λένε πως είδαν τ' όνομα μου
Bm                G
Κι εγώ αρχίζω να γελάω
Bm                G
αλλάζει πρόσωπα η θλίψη
Bm                G
ρωτάνε αν την αγαπάω
Bm        A           G
έστω για λίγο θα μου λείψει
 

 
 Riff1
|--3--2---2h3-2-0-2-----2-3-2-3----6---3--2----|
|-------------------------------------------3--|
|----------------------------------------------|
|----------------------------------------------|
|----------------------------------------------|
|----------------------------------------------|

Solo
|----2---2-2----2-2-2--0-0-0----------------------------|
|--------------------------------3-3---2-2--------0-1b2-|
|--------------------------------------------2-2--------|
|-------------------------------------------------------|
|-------------------------------------------------------|
|-------------------------------------------------------|
 
|---2---2-2----2-2-2--0-0-0------------------------------|
|-----------------------------3-3---2-2-------0b2b3b2----|
|----------------------------------------2-2------------2|
|--------------------------------------------------------|
|--------------------------------------------------------|
|--------------------------------------------------------|
 
|-------0---0-----2-222--0-0-00--------------------------|
|----3----3-----------------------3-3-3p2-2h3-3p2--------|
|----------------------------------------------------2---|
|--------------------------------------------------------|
|--------------------------------------------------------|
|--------------------------------------------------------|
 
|-----0---0--2-222--0-0-00---------------------------------|
|--3----3-------------------3-3-3p2-2h3-3p2--2-3--2-3--2-3-|
|----------------------------------------------------------|
|----------------------------------------------------------|
|----------------------------------------------------------|
|----------------------------------------------------------|
Κιθάρα, συγχορδίες για το τραγούδι

Αλλάζει πρόσωπα η θλίψη

 
37 προβολές
Δυσκολία: μέτρια
Καποτάστο: 0
περίπου 1 χρόνο πριν από galhnos
[Εισαγωγή]
Bm G
 
|-----------------------------------------|
|-----------------------------------------|
|-----------------------------------------|
|----------0--------------------0---------|
|--2----------4--0----2------------4--0---|
|-----3-------------------3---------------|

Bm              G
Αλλάζει πρόσωπα η θλίψη
Bm                 G
ένα κορίτσι με κοιτάει
Bm                 G
χορεύει, κι ύστερα πετάει
Bm                     G
πάνω απ' τα μπαρ και τα ηχεία
Bm                 G
Δεν έχει τίποτα να κρύψει
Bm                 G
καμιά φορά αντί να κλαίει
Bm                    G
χορεύει, κι είναι σαν να λέει
Bm          A              G
σπάστε την πόρτα αν δεν ανοίξει
 
Riff1

Bm              G
Αλλάζει πρόσωπα η θλίψη
Bm               G
μαζεύει πίσω τα μαλλιά της
Bm                  G
θυμίζεις μια μικρή κυρία
Bm                 G
που όλο ξεχνάω τ' όνομα της
Bm                      G
Ποιος θα τα βάλει με τη θλίψη
Bm               G
όσο αντιστέκεται νικάει
Bm                         G
σ' όποιον τη ρίχνει από το θρόνο
Bm     A         G
εσένα λέει θέλω μόνο
 
Solo
 
Bm                G
Όταν τελειώνει η συναυλία
Bm                    G
κάτι παιδιά έρχονται κοντά μου
Bm                G
στα σκονισμένα της αρχεία
Bm                G
λένε πως είδαν τ' όνομα μου
Bm                G
Κι εγώ αρχίζω να γελάω
Bm                G
αλλάζει πρόσωπα η θλίψη
Bm                G
ρωτάνε αν την αγαπάω
Bm        A           G
έστω για λίγο θα μου λείψει
 

 
 Riff1
|--3--2---2h3-2-0-2-----2-3-2-3----6---3--2----|
|-------------------------------------------3--|
|----------------------------------------------|
|----------------------------------------------|
|----------------------------------------------|
|----------------------------------------------|

Solo
|----2---2-2----2-2-2--0-0-0----------------------------|
|--------------------------------3-3---2-2--------0-1b2-|
|--------------------------------------------2-2--------|
|-------------------------------------------------------|
|-------------------------------------------------------|
|-------------------------------------------------------|
 
|---2---2-2----2-2-2--0-0-0------------------------------|
|-----------------------------3-3---2-2-------0b2b3b2----|
|----------------------------------------2-2------------2|
|--------------------------------------------------------|
|--------------------------------------------------------|
|--------------------------------------------------------|
 
|-------0---0-----2-222--0-0-00--------------------------|
|----3----3-----------------------3-3-3p2-2h3-3p2--------|
|----------------------------------------------------2---|
|--------------------------------------------------------|
|--------------------------------------------------------|
|--------------------------------------------------------|
 
|-----0---0--2-222--0-0-00---------------------------------|
|--3----3-------------------3-3-3p2-2h3-3p2--2-3--2-3--2-3-|
|----------------------------------------------------------|
|----------------------------------------------------------|
|----------------------------------------------------------|
|----------------------------------------------------------|

Πρόσθεσε ένα σχόλιο

Πληροφορίες

Πρόσθεσε και εσύ συγχορδίες στην βιβλιοθήκη του Tabsy

ΔΗΜΟΣΙΕΥΣΗ