Tabsy
tabsy.gr, συγχορδίες για το τραγούδι

Ατλαντίς

Ερμηνευτής: Ξυλινα Σπαθια

Μουσική /Στίχοι: Παυλιδης Παυλος /Παυλιδης Παυλος

[Εισαγωγή]
  Bb         Gm                Dm
|-----------------------------------------------------
|-----------------------------------------------------
|-------7--------------------------5-5---5--5---------   ] 4x
|-----8---8----------5-5----------5-5---5--5--8--7----
|---8-------8------5-----5----5-----------------------
|-6--------------3-----------3--------------------8---

[Κουπλέ]
Bb            Gm          Dm
Στο νησί τις γαλάζιες νύχτες
Bb            Gm              Dm
μέσ' στα μπαρ αγκαλιά ξωτικά καθάρματα
Bb            Gm                Dm
μου 'χες πει πως θα ‘ρθεις και ήρθες
Bb            Gm             Dm
Ατλαντίς στο βυθό φωτισμένα άρματα

[Ρεφραίν]
Bb                  Gm        Dm   F Eb Bb Gm Dm
Μπρος στα μάτια μου   περνάνε
Bb           Gm        Dm  F Eb Bb Gm F
Φωσφορίζουνε    και πάνε

[Κουπλέ]
Bb            Gm         Dm
Στο νησί τις γαλάζιες νύχτες
Bb            Gm                  Dm
μες στα μπαρ τα παιδιά σε κοιτάν ανύποπτα
Bb           Gm       Dm
με ρωτάν από που να ήρθες
Bb       Gm                  Dm
δε θα πω ποτέ σε κανέναν τίποτα

[Ρεφραίν]
  Bb               Gm         Dm   F Eb Bb Gm Dm
Μπρος στα μάτια μου   περνάνε
Bb           Gm         Dm  F Eb Bb Gm F
Φωσφορίζουνε    και πάνε
 
[Σολο]
D  C     Bb   C  F                   Bb      C                 F
Solo

[Κουπλέ]
 Bb            Gm             Dm
Στις βιτρίνες που μου φέρνουν ζάλη
      Bb         Gm                   Dm
στις οθόνες που χτυπάν τα κομπιούτερ γράμματα
  Bb            Gm        Dm
καθρεφτίζεσαι μπροστά μου πάλι
    Bb        Gm              Dm
Ατλαντίς στο βυθό φωτισμένα άρματα

Solo
e[-------------------------------------5-6-8-6-5-6-5-------------------------------5-6-8-6-5-6-5]
B[----------------------------------------------------------------------------------------------]
G[----------------------------------------------------------------------------------------------]  
D[---------------2-3-2---3-2-0------------------------2-2-------2-2--2—-2-3-2-3-----------------]
A[--5-7-5—3—5----------1---------3-1-3--------------------1---3---------------------------------]
E[---------5------------------------------------------------------------------------------------]
 
e|-------------------------------------------------|
Β|-------------------------------------------------|
G|-12--14--15-----15--14---12------12---14---12----|
D|-------------------------------------------------|
A|-------------------------------------------------|
E|-------------------------------------------------|

 
e--------------------------------------------------|
B|-------------------------------------------------|
G|---15/-17--15p--14----17p15-14-15--14--12--14-14-|
D|-------------------------------------------------|
A|-------------------------------------------------|
E|-------------------------------------------------|


 
e|-------------------------------------------------|
B|-------------------------------------------------|
G|-15-15-15-15--14--12----12--14-12---15/17--15p-1-|
D|-------------------------------------------------|
A|-------------------------------------------------|
E|-------------------------------------------------|
Κιθάρα, συγχορδίες για το τραγούδι

Ατλαντίς

 
118 προβολές
Δυσκολία: μέτρια
Καποτάστο: 0
περίπου 1 χρόνο πριν από eysebfth
[Εισαγωγή]
  Bb         Gm                Dm
|-----------------------------------------------------
|-----------------------------------------------------
|-------7--------------------------5-5---5--5---------   ] 4x
|-----8---8----------5-5----------5-5---5--5--8--7----
|---8-------8------5-----5----5-----------------------
|-6--------------3-----------3--------------------8---

[Κουπλέ]
Bb            Gm          Dm
Στο νησί τις γαλάζιες νύχτες
Bb            Gm              Dm
μέσ' στα μπαρ αγκαλιά ξωτικά καθάρματα
Bb            Gm                Dm
μου 'χες πει πως θα ‘ρθεις και ήρθες
Bb            Gm             Dm
Ατλαντίς στο βυθό φωτισμένα άρματα

[Ρεφραίν]
Bb                  Gm        Dm   F Eb Bb Gm Dm
Μπρος στα μάτια μου   περνάνε
Bb           Gm        Dm  F Eb Bb Gm F
Φωσφορίζουνε    και πάνε

[Κουπλέ]
Bb            Gm         Dm
Στο νησί τις γαλάζιες νύχτες
Bb            Gm                  Dm
μες στα μπαρ τα παιδιά σε κοιτάν ανύποπτα
Bb           Gm       Dm
με ρωτάν από που να ήρθες
Bb       Gm                  Dm
δε θα πω ποτέ σε κανέναν τίποτα

[Ρεφραίν]
  Bb               Gm         Dm   F Eb Bb Gm Dm
Μπρος στα μάτια μου   περνάνε
Bb           Gm         Dm  F Eb Bb Gm F
Φωσφορίζουνε    και πάνε
 
[Σολο]
D  C     Bb   C  F                   Bb      C                 F
Solo

[Κουπλέ]
 Bb            Gm             Dm
Στις βιτρίνες που μου φέρνουν ζάλη
      Bb         Gm                   Dm
στις οθόνες που χτυπάν τα κομπιούτερ γράμματα
  Bb            Gm        Dm
καθρεφτίζεσαι μπροστά μου πάλι
    Bb        Gm              Dm
Ατλαντίς στο βυθό φωτισμένα άρματα

Solo
e[-------------------------------------5-6-8-6-5-6-5-------------------------------5-6-8-6-5-6-5]
B[----------------------------------------------------------------------------------------------]
G[----------------------------------------------------------------------------------------------]  
D[---------------2-3-2---3-2-0------------------------2-2-------2-2--2—-2-3-2-3-----------------]
A[--5-7-5—3—5----------1---------3-1-3--------------------1---3---------------------------------]
E[---------5------------------------------------------------------------------------------------]
 
e|-------------------------------------------------|
Β|-------------------------------------------------|
G|-12--14--15-----15--14---12------12---14---12----|
D|-------------------------------------------------|
A|-------------------------------------------------|
E|-------------------------------------------------|

 
e--------------------------------------------------|
B|-------------------------------------------------|
G|---15/-17--15p--14----17p15-14-15--14--12--14-14-|
D|-------------------------------------------------|
A|-------------------------------------------------|
E|-------------------------------------------------|


 
e|-------------------------------------------------|
B|-------------------------------------------------|
G|-15-15-15-15--14--12----12--14-12---15/17--15p-1-|
D|-------------------------------------------------|
A|-------------------------------------------------|
E|-------------------------------------------------|

Πρόσθεσε ένα σχόλιο

Πληροφορίες

Πρόσθεσε και εσύ συγχορδίες στην βιβλιοθήκη του Tabsy

ΔΗΜΟΣΙΕΥΣΗ