Tabsy
tabsy.gr, συγχορδίες για το τραγούδι

Βροχοποιός

Ερμηνευτής: Ξυλινα Σπαθια

Μουσική /Στίχοι: Ξυλινα Σπαθια /Παυλιδης Παυλος

[Εισαγωγή]
 
-------------------------------------------------------------------
-------------------------------------------------------------------
--------0----------------------------0-----------------------------
----4-------4------0-------0------4-----4-----0----0h2---0---------
--2---2----------5---5---5------2---2-------5---5-----------0------
---------------3-------3------------------3------------------------
 
-------------------------------------------------------------------
-------------------------------------------------------------------
--------0-----------------------------0----------------------------
---4------4------0-------0-------7---------------------------------
-2---2---------5---5---5-------5---5-------------------------------
-------------3-------3---------------------------------------------
 
Bm                          G
Αν αυτά τα σύννεφα είναι οι φόβοι των ανθρώπων
       Bm                    G           
που παγώνουνε πάνω απ' τις σκεπές   
Bm                           G
Ας ξεπλύνουν οι πιο άγριες βροχές αυτούς τους δρόμους
         D                   Bm
κι ας χυθούν στις μυστικές δεξαμενές
                  G 
που γεμίζουνε τη θάλασσα της φρίκης
     Bm                      G
που βουτάει  αυτός ο δύτης μοναχός
          Bm
Πριν τελειώσει η ανάσα του
    G                       D
κοιτάει προς τα πάνω και θυμάται
 
[Γέφυρα] 
Riff
               D    Bm A
Διαμαντένιος ουρανός
               D
Διαμαντένιος ουρανός
 
[Κουπλέ]
Bm                       G
Αν αυτά τα σύννεφα ζυγίζουνε το βάρος 
Bm                          G
που λυγίζει τις ανθρώπινες καρδιές 
Bm                              G
Ας γκρεμίσουνε οι πιο άγριες ματιές αυτά τα σκιάχτρα
        D                         Bm
κι ας χυθούν στις μυστικές δεξαμενές
                  G
που γεμίζουνε με καύσιμα τα τρένα
        Bm                   G
που θα πάρει κάποια μέρα μοναχός
Bm                       
Πριν τελειώσει το τσιγάρο με
  G                          D
κοιτάει προς τα πάνω και θυμάται

Bm A G Bm
A G Bm A
G Bm

A
Διαμαντένιος ουρανός 
                     G
Μες τα κύματα δε με ένοιαζε
                  Bm
Αν ο κόσμος είναι απλός
                           A
Η αν έτσι απλώς εμένα μου έμοιαζε
                G    Bm A G Bm  A  G Bm A 
Διαμαντένιος ουρανός
                 G  Bm
Διαμαντένιος ουρανός


Riff
e|----2h3-2--2h3-2-----|
B|-3-------------------|
G|---------------------|
D|---------------------|
A|---------------------|
E|---------------------|
 
Κιθάρα, συγχορδίες για το τραγούδι

Βροχοποιός

 
34 προβολές
Δυσκολία: μέτρια
Καποτάστο: 0
11 μήνες πριν από kostos
[Εισαγωγή]
 
-------------------------------------------------------------------
-------------------------------------------------------------------
--------0----------------------------0-----------------------------
----4-------4------0-------0------4-----4-----0----0h2---0---------
--2---2----------5---5---5------2---2-------5---5-----------0------
---------------3-------3------------------3------------------------
 
-------------------------------------------------------------------
-------------------------------------------------------------------
--------0-----------------------------0----------------------------
---4------4------0-------0-------7---------------------------------
-2---2---------5---5---5-------5---5-------------------------------
-------------3-------3---------------------------------------------
 
Bm                          G
Αν αυτά τα σύννεφα είναι οι φόβοι των ανθρώπων
       Bm                    G           
που παγώνουνε πάνω απ' τις σκεπές   
Bm                           G
Ας ξεπλύνουν οι πιο άγριες βροχές αυτούς τους δρόμους
         D                   Bm
κι ας χυθούν στις μυστικές δεξαμενές
                  G 
που γεμίζουνε τη θάλασσα της φρίκης
     Bm                      G
που βουτάει  αυτός ο δύτης μοναχός
          Bm
Πριν τελειώσει η ανάσα του
    G                       D
κοιτάει προς τα πάνω και θυμάται
 
[Γέφυρα] 
Riff
               D    Bm A
Διαμαντένιος ουρανός
               D
Διαμαντένιος ουρανός
 
[Κουπλέ]
Bm                       G
Αν αυτά τα σύννεφα ζυγίζουνε το βάρος 
Bm                          G
που λυγίζει τις ανθρώπινες καρδιές 
Bm                              G
Ας γκρεμίσουνε οι πιο άγριες ματιές αυτά τα σκιάχτρα
        D                         Bm
κι ας χυθούν στις μυστικές δεξαμενές
                  G
που γεμίζουνε με καύσιμα τα τρένα
        Bm                   G
που θα πάρει κάποια μέρα μοναχός
Bm                       
Πριν τελειώσει το τσιγάρο με
  G                          D
κοιτάει προς τα πάνω και θυμάται

Bm A G Bm
A G Bm A
G Bm

A
Διαμαντένιος ουρανός 
                     G
Μες τα κύματα δε με ένοιαζε
                  Bm
Αν ο κόσμος είναι απλός
                           A
Η αν έτσι απλώς εμένα μου έμοιαζε
                G    Bm A G Bm  A  G Bm A 
Διαμαντένιος ουρανός
                 G  Bm
Διαμαντένιος ουρανός


Riff
e|----2h3-2--2h3-2-----|
B|-3-------------------|
G|---------------------|
D|---------------------|
A|---------------------|
E|---------------------|
 

Πρόσθεσε ένα σχόλιο

Πληροφορίες

Πρόσθεσε και εσύ συγχορδίες στην βιβλιοθήκη του Tabsy

ΔΗΜΟΣΙΕΥΣΗ