Κιθάρα, συγχορδίες για το τραγούδι

Ρομπότ

 
1 προβολές
Δυσκολία: μέτρια
Καποτάστο: 0
8 μήνες πριν από kanelou
Εισαγωγή:
   Dm
|----------------------------------------------
|----------------------------------------------
|----------------------------------------------
|--------2--------2----------------2----2------
|---4--------4---------4---4---------4---------
|----------------------------------------------
 
    F                          C
|----------------------------------------------
|----------------------------------------------
|----------------------------------------------
|------2--------2----------1--1-----1----------
|-2--------2---------2-----------2-------------
|----------------------------------------------
 

[Κουπλέ]
Am
Αυτός ο τύπος μας κοιτάει σα κάμερα
πίσω απ' τα μάτια του βλέπω καλώδια
θα 'βαζα στοίχημα παίρνει προγράμματα
μας βλέπει digital σε ολογράμματα
 
Κάρτα η μνήμη ακούει στέρεο
ρυθμίζει τις εντάσεις στ' ασημένιο περιδέραιο
στο στήθος είναι η καρδιά του πέτρα
καλώδια χιλιάδες μέτρα
 
[Γέφυρα]
Dm F C

Am
Επιχειρήσεις, επιχειρήσεις
πουλά κλεμμένα όνειρα, αγοράζει αναμνήσεις
ότι βλέπει την αλήθεια στον τελευταίο πάπυρο
να καίγεται σε μια οθόνη ως το άπειρο
 
Μίστερ, τι με κοιτάς
πρόσεξε του λέω τώρα ποιο κουμπί πατάς
είμαι αλεξίσφαιρος, είμαι αλεξίσφαιρος
είμαι αλεξίσφαιρος, εεεεε

[Γέφυρα]
Dm F C

Am
Βλάκα, σ' αποσυνδέουνε για πλάκα
οι τύποι που σου αλλάξανε το αίμα με νερό
να νίπτουνε μ' αυτό τας χείρας των Πιλάτων
έμποροι πάντων ορατών και αοράτων

Solo
|----------------------------------------------------------------------------------
|-----------------------------------------------------------------------5/8b8\5----
|---4-2-4-2h4p2-----4-2-4 2h4p2-4/5--(5)\4---4-4/5b4p-2----5-----------------------
|----------------------------------------------------------------------------------
|----------------------------------------------------------------------------------
|----------------------------------------------------------------------------------
 
|--------------------------------------------------------
|--------------------------------------------------------
|--(2)--3p2h3p2h3-(3)/5p3h5p3h5----3p2h3p2h3---2-3/9-----
|--------------------------------------------------------
|--------------------------------------------------------
|--------------------------------------------------------
 
|--------------------------------------------------------
|--3p2h3p2-(3)/5---3p2h3h2-(3)/7---3p2h3p2-(3)/9---------
|--------------------------------------------------------
|--------------------------------------------------------
|--------------------------------------------------------
|--------------------------------------------------------

Πρόσθεσε ένα σχόλιο

Πληροφορίες

Πρόσθεσε και εσύ συγχορδίες στην βιβλιοθήκη του Tabsy

ΔΗΜΟΣΙΕΥΣΗ