Tabsy
tabsy.gr, συγχορδίες για το τραγούδι

Φύλλα αλκαλικά

Ερμηνευτής: Λιδακης Μανωλης

Μουσική /Στίχοι: Μαλαμας Σωκρατης /Αλκαιος Αλκης

Capo: 3ο τάστο

 
Asus4           Dm  C     G           Dm
Κλειστό το φινιστρίνι και το γυαλί θαμπό
Asus4/C      Dm  C        G           F
Ποτέ στα όνειρα σου δε μ' άφησες να μπω
 
Asus4           Dm C     G          Dm
Αν δεις λευκό καράβι με πορφυρά πανιά
Asus4               Dm C      G             F   G F G F Asus4
θα 'ναι η δική μου αγάπη που πάει στη λησμονιά
 
C              Dm      A#                F
Μην έρχεσαι μαζί μου, μου είπες πριν χαθείς
Am             G        Dm       G     F
θα μαραθεί η αγάπη και 'συ θα μ' αρνηθείς
C                 Dm  A#              F
Φτιάξε μαγιά στο χώμα με φύλλα αλκαλικά
Am             G      Dm    G    C    Dm     F    Am
σε μια ζωή χαμένη κανένας δεν νικά, κανένας δεν νικά
 
Bridge
Am G Dm F Dm F Am C G F Am
 
Γλυκάνισο σου στέλνω και μέλι φοινικιάς **
τις πίκρες σου να διώχνεις και να μη με ξεχνάς ***
 
Κι αν σ' έπιασε το βράδυ κι ο έρωτας αργεί
Το πιο βαθύ σκοτάδι είναι πριν την αυγή
 
Μην έρχεσαι μαζί μου...
 
Γέφυρα
Am G Dm F Dm F Am C G F Am
 
 (x2)
e|-----------------|-----------------|-----------------|
B|-----------------|-----------------|-----------------|
G|---2-2---2-2-----|-----------------|-----------------|
D|--2---2-----2----|-2-2h3-2-0-0h2---|-----------3h5-3-|
A|-0-----0-----0---|---------------3-|---0-3-5-3-------|
E|-----------------|-----------------|—1---------------|
 
Κιθάρα, συγχορδίες για το τραγούδι

Φύλλα αλκαλικά

 
26 προβολές
Δυσκολία: μέτρια
Κούρδισμα: Standard
Καποτάστο: 3
11 μήνες πριν από eysebfth
 
Asus4           Dm  C     G           Dm
Κλειστό το φινιστρίνι και το γυαλί θαμπό
Asus4/C      Dm  C        G           F
Ποτέ στα όνειρα σου δε μ' άφησες να μπω
 
Asus4           Dm C     G          Dm
Αν δεις λευκό καράβι με πορφυρά πανιά
Asus4               Dm C      G             F   G F G F Asus4
θα 'ναι η δική μου αγάπη που πάει στη λησμονιά
 
C              Dm      A#                F
Μην έρχεσαι μαζί μου, μου είπες πριν χαθείς
Am             G        Dm       G     F
θα μαραθεί η αγάπη και 'συ θα μ' αρνηθείς
C                 Dm  A#              F
Φτιάξε μαγιά στο χώμα με φύλλα αλκαλικά
Am             G      Dm    G    C    Dm     F    Am
σε μια ζωή χαμένη κανένας δεν νικά, κανένας δεν νικά
 
Bridge
Am G Dm F Dm F Am C G F Am
 
Γλυκάνισο σου στέλνω και μέλι φοινικιάς **
τις πίκρες σου να διώχνεις και να μη με ξεχνάς ***
 
Κι αν σ' έπιασε το βράδυ κι ο έρωτας αργεί
Το πιο βαθύ σκοτάδι είναι πριν την αυγή
 
Μην έρχεσαι μαζί μου...
 
Γέφυρα
Am G Dm F Dm F Am C G F Am
 
 (x2)
e|-----------------|-----------------|-----------------|
B|-----------------|-----------------|-----------------|
G|---2-2---2-2-----|-----------------|-----------------|
D|--2---2-----2----|-2-2h3-2-0-0h2---|-----------3h5-3-|
A|-0-----0-----0---|---------------3-|---0-3-5-3-------|
E|-----------------|-----------------|—1---------------|
 

Πρόσθεσε ένα σχόλιο

Πληροφορίες

Πρόσθεσε και εσύ συγχορδίες στην βιβλιοθήκη του Tabsy

ΔΗΜΟΣΙΕΥΣΗ