Tabsy
tabsy.gr, συγχορδίες για το τραγούδι

Περασμένες μου αγάπες

Ερμηνευτής: Λιντα Μαιρη

Μουσική /Στίχοι: Χιωτης Μανωλης /Παπαγιαννοπουλου Ευτυχια

Μετά από τον πρώτο στίχο κάθε στροφής παίζεται το Riff1, μετα απο δεύτερο
το Riff2 και μετά από κάθε τρίτο το Riff3. Καλη απόλαυση!
 
[Κουπλέ]
A     Dm         Gm         A A#         A  
Περασμένες μου αγάπες, όνειρα  που σβήσατε
 Gm                       Dm
Με το πέρασμα του χρόνου την ανάμνηση του πόνου
  A       Gm          A
στην καρδιά μου αφήσατε
 A    Dm         Gm         A A#         A
Περασμένες μου αγάπες, όνειρα που σβήσατε

A     Dm         Gm            A A#       A
Περασμένες μου αγάπες, του καιρού χαλάσματα
 Gm                     Dm
Όσο μακριά κι αν πάτε, στην ζωή μου τριγυρνάτε
  A     Gm        A
σαν χλωμά φαντάσματα
 A    Dm         Gm            A A#      A
Περασμένες μου αγάπες, του καιρού χαλάσματα
 

A     Dm         Gm               A A#       A
Για δυο μάτια, για δυο χείλια, κάποτε ξενύχτησα
 Gm                   Dm
κι ένιωσα ανατριχίλα μέχρι της καρδιάς τα φύλλα
  A     Gm       A
σαν τα πρωτοφίλησα
 A    Dm         Gm               A A#      A
Για δυο μάτια, για δυο χείλια, κάποτε ξενύχτησα

A     Dm         Gm            A A#       A
Περασμένες μου αγάπες, του καιρού χαλάσματα
 Gm                     Dm
Όσο μακριά κι αν πάτε, στην ζωή μου τριγυρνάτε
  A     Gm        A
σαν χλωμά φαντάσματα
 A    Dm         Gm            A A#      A
Περασμένες μου αγάπες, του καιρού χαλάσματα
 
A     Dm         Gm         A A#        A
Περασμένες μου αγάπες, όνειρα που σβήσατε
 Gm                       Dm
Με το πέρασμα του χρόνου την ανάμνηση του πόνου
  A       Gm          A
στην καρδιά μου αφήσατε
 A    Dm         Gm         A A#        A
Περασμένες μου αγάπες, όνειρα που σβήσατε

Riff1 
e|--11-11-11-11--10-10-8-8---|
B|---------------------------|
G|---------------------------|
D|---------------------------|
A|---------------------------|
E|---------------------------|

Riff2
e|--12-12-12-12-10-10-8-6-10-|
B|---------------------------|
G|---------------------------|
D|---------------------------|
A|---------------------------|
E|---------------------------|

Riff3
e|--5-5-5-6-5-5-6-5----------|
B|---------------------------|
G|---------------------------|
D|---------------------------|
A|---------------------------|
E|---------------------------|  
Κιθάρα, συγχορδίες για το τραγούδι

Περασμένες μου αγάπες

 
98 προβολές
Δυσκολία: μέτρια
Καποτάστο: 0
πάνω από 1 χρόνο πριν από koskleas
Μετά από τον πρώτο στίχο κάθε στροφής παίζεται το Riff1, μετα απο δεύτερο
το Riff2 και μετά από κάθε τρίτο το Riff3. Καλη απόλαυση!
 
[Κουπλέ]
A     Dm         Gm         A A#         A  
Περασμένες μου αγάπες, όνειρα  που σβήσατε
 Gm                       Dm
Με το πέρασμα του χρόνου την ανάμνηση του πόνου
  A       Gm          A
στην καρδιά μου αφήσατε
 A    Dm         Gm         A A#         A
Περασμένες μου αγάπες, όνειρα που σβήσατε

A     Dm         Gm            A A#       A
Περασμένες μου αγάπες, του καιρού χαλάσματα
 Gm                     Dm
Όσο μακριά κι αν πάτε, στην ζωή μου τριγυρνάτε
  A     Gm        A
σαν χλωμά φαντάσματα
 A    Dm         Gm            A A#      A
Περασμένες μου αγάπες, του καιρού χαλάσματα
 

A     Dm         Gm               A A#       A
Για δυο μάτια, για δυο χείλια, κάποτε ξενύχτησα
 Gm                   Dm
κι ένιωσα ανατριχίλα μέχρι της καρδιάς τα φύλλα
  A     Gm       A
σαν τα πρωτοφίλησα
 A    Dm         Gm               A A#      A
Για δυο μάτια, για δυο χείλια, κάποτε ξενύχτησα

A     Dm         Gm            A A#       A
Περασμένες μου αγάπες, του καιρού χαλάσματα
 Gm                     Dm
Όσο μακριά κι αν πάτε, στην ζωή μου τριγυρνάτε
  A     Gm        A
σαν χλωμά φαντάσματα
 A    Dm         Gm            A A#      A
Περασμένες μου αγάπες, του καιρού χαλάσματα
 
A     Dm         Gm         A A#        A
Περασμένες μου αγάπες, όνειρα που σβήσατε
 Gm                       Dm
Με το πέρασμα του χρόνου την ανάμνηση του πόνου
  A       Gm          A
στην καρδιά μου αφήσατε
 A    Dm         Gm         A A#        A
Περασμένες μου αγάπες, όνειρα που σβήσατε

Riff1 
e|--11-11-11-11--10-10-8-8---|
B|---------------------------|
G|---------------------------|
D|---------------------------|
A|---------------------------|
E|---------------------------|

Riff2
e|--12-12-12-12-10-10-8-6-10-|
B|---------------------------|
G|---------------------------|
D|---------------------------|
A|---------------------------|
E|---------------------------|

Riff3
e|--5-5-5-6-5-5-6-5----------|
B|---------------------------|
G|---------------------------|
D|---------------------------|
A|---------------------------|
E|---------------------------|  

Πρόσθεσε ένα σχόλιο

Πληροφορίες

Πρόσθεσε και εσύ συγχορδίες στην βιβλιοθήκη του Tabsy

ΔΗΜΟΣΙΕΥΣΗ