Tabsy
tabsy.gr, συγχορδίες για το τραγούδι

Στη κοιλάδα των Τεμπών

Ερμηνευτής: Μαλαμας Σωκρατης

Μουσική /Στίχοι: Παπακωνσταντινου Θανασης /Παπακωνσταντινου Θανασης

Capo: 3ο τάστο

Capo: 3
 
Εισαγωγή:
 
1 Μέρος
   Am                      Em   Dm           Am
e----------------------------------------------
B--------------------------------3--3-3---6-5--
G--2-2-----2---------------------2--2-2---5-4--
D------4-5---5-4-5-2--2-2--2s3-----------------
A--0-0-0-0-0-0-0-0-0--0-0--0-----0--0-0---0-0--
E----------------------------------------------
 
2 Μέρος
     C  Dm G  Am     C  Dm  G  Am
e--0-0-1------------0-0-1-------------
B--1-1-3------------1-1-3-------------
G--0-0-2------------0-0-2-------------
D------0---0------------0-----0-------
A--3----2-3-2-3-0---3------2-3-2-3-0--
E-------------------------------------
 
Am             C        Am
Μες την κοιλά- όπως τα λέω
Dm          G           Dm
μες την κοιλάδα των Τεμπών
G          Dm  G   Am
φόβος των μηχανοδηγών
 
Am             C        Am
Είναι ένας γέ- όπως τα λέω
Dm          G         Dm
είναι ένας γέρο πλάτανος
G          Dm    G   Am
μαγκούφης και παράφορος
 
Εισαγωγή
 
Που πίνει απ' το πως τα λέω
που πίνει απ' το θολό νερό
του ποταμού το ιερό
 
Πίνει κι απλώ- όπως τα λέω
πίνει κι απλώνει ρίζωμα
βαθιά μέσα στα ανείπωτα
 
Εισαγωγή
 
Κι όποτε παί- όπως σας λέω
κι όποτε παίρνει ανάποδες
γέρνει και πέφτει στις γραμμές
 
Πιάνει το τρέ- όπως τα λέω
πιάνει το τρένο από τ' αυτί
Μην τη περνάς τη Γευγελή
 
Εισαγωγή
 
Μένα μου το όπως τα λέω
μένα μου το 'πε ο Πηνειός
το μυστικό ο φλύαρος
 
Πως ήταν ά όπως τα λέω
πως ήταν άνθρωπος παλιά
κι είχε παιδιά στην ξενιτιά
 
2 Μέρος
   C  Dm G  Am     C  Dm  G  Am
e--0-0-1---------------0-0-1------------
B--1-1-3---------------1-1-3------------
G--0-0-2---------------0-0-2------------
D------0-----0-------------0----0-------
A--3------2-3-2-3-0---3------2-3-2-3-0--
E---------------------------------------
 
Κιθάρα, συγχορδίες για το τραγούδι

Στη κοιλάδα των Τεμπών

 
13 προβολές
περίπου 1 χρόνο πριν από apostowna
Capo: 3
 
Εισαγωγή:
 
1 Μέρος
   Am                      Em   Dm           Am
e----------------------------------------------
B--------------------------------3--3-3---6-5--
G--2-2-----2---------------------2--2-2---5-4--
D------4-5---5-4-5-2--2-2--2s3-----------------
A--0-0-0-0-0-0-0-0-0--0-0--0-----0--0-0---0-0--
E----------------------------------------------
 
2 Μέρος
     C  Dm G  Am     C  Dm  G  Am
e--0-0-1------------0-0-1-------------
B--1-1-3------------1-1-3-------------
G--0-0-2------------0-0-2-------------
D------0---0------------0-----0-------
A--3----2-3-2-3-0---3------2-3-2-3-0--
E-------------------------------------
 
Am             C        Am
Μες την κοιλά- όπως τα λέω
Dm          G           Dm
μες την κοιλάδα των Τεμπών
G          Dm  G   Am
φόβος των μηχανοδηγών
 
Am             C        Am
Είναι ένας γέ- όπως τα λέω
Dm          G         Dm
είναι ένας γέρο πλάτανος
G          Dm    G   Am
μαγκούφης και παράφορος
 
Εισαγωγή
 
Που πίνει απ' το πως τα λέω
που πίνει απ' το θολό νερό
του ποταμού το ιερό
 
Πίνει κι απλώ- όπως τα λέω
πίνει κι απλώνει ρίζωμα
βαθιά μέσα στα ανείπωτα
 
Εισαγωγή
 
Κι όποτε παί- όπως σας λέω
κι όποτε παίρνει ανάποδες
γέρνει και πέφτει στις γραμμές
 
Πιάνει το τρέ- όπως τα λέω
πιάνει το τρένο από τ' αυτί
Μην τη περνάς τη Γευγελή
 
Εισαγωγή
 
Μένα μου το όπως τα λέω
μένα μου το 'πε ο Πηνειός
το μυστικό ο φλύαρος
 
Πως ήταν ά όπως τα λέω
πως ήταν άνθρωπος παλιά
κι είχε παιδιά στην ξενιτιά
 
2 Μέρος
   C  Dm G  Am     C  Dm  G  Am
e--0-0-1---------------0-0-1------------
B--1-1-3---------------1-1-3------------
G--0-0-2---------------0-0-2------------
D------0-----0-------------0----0-------
A--3------2-3-2-3-0---3------2-3-2-3-0--
E---------------------------------------
 

Πρόσθεσε ένα σχόλιο

Πληροφορίες

Πρόσθεσε και εσύ συγχορδίες στην βιβλιοθήκη του Tabsy

ΔΗΜΟΣΙΕΥΣΗ