Tabsy
tabsy.gr, συγχορδίες για το τραγούδι

Για να σ' εκδικηθώ

Ερμηνευτής: Μητροπανος Δημητρης

Μουσική /Στίχοι: Παπαδοπουλος Λακης /Ντουμος Κυριακος

[Κουπλέ]
                D
Για να σε εκδικηθώ, σου σκίζω τις φωτογραφίες
         Bm
κι εσύ όπως και εγώ κομμάτια στις γωνιές και στις πλατείες
                 Em
τα γράμματά σου καίω μέσα στον πυρετό μου
                 A
και σβήνω το όνομά σου μαζί με το δικό μου
 
                 D
Για να σε εκδικηθώ πετάω ενθύμια και δώρα
         Bm
κι εσύ όπως και εγώ θρύψαλα και σκουπίδια τώρα 
                    G  A                 D     
τις ζωγραφιές σου σκίζω τα πόστερ που αγαπούσες   
B                  Em  A              D
και βάφω τις κουρτίνες  στο χρώμα που μισούσες

[Ρεφραίν]
            D                    F#m
Για να γιατρέψω τις ατέλειωτες πληγές
           G                    A
αφού δεν βγήκες από μέσα μου ποτέ
            D                    F#m
Για να γιατρέψω τις ατέλειωτες πληγές
           G                    A
αφού δεν βγήκες από μέσα μου ποτέ
 
[Σόλο]
Solo

[Κουπλέ]
                 E
Για να σε εκδικηθώ πετάω ενθύμια και δώρα
                C#m
κι εσύ όπως και εγώ θρύψαλα και σκουπίδια τώρα 
                    A  B                  E     
τις ζωγραφιές σου σκίζω τα πόστερ που αγαπούσες   
C#                F#m  B                 E
και βάφω τις κουρτίνες στο χρώμα που μισούσες

[Ρεφραίν]
            E                     C#m
Για να γιατρέψω τις ατέλειωτες πληγές
           A                    B
αφού δεν βγήκες από μέσα μου ποτέ
            E                     C#m
Για να γιατρέψω τις ατέλειωτες πληγές
           A                    B
αφού δεν βγήκες από μέσα μου ποτέ

Solo
e|-------------------------------------------------------------------|
B|-------------------------------------------------------------------|
G|-----------------------7P6-6~-------------9~--7h9-9--7h9-9--7/9/7~-|
D|------------4-5-5/7-7~--------7-4-4/9~--7--------------------------|
A|-----4-5-7---------------------------------------------------------|
E|-5-7---------------------------------------------------------------|
 
e|------10-10/9--9/10--10/12------------------12b-12-10---------------|
B|----8----------------------10-12-10---10-12-----------12-10-12-10---|
G|-/7-----------------------------------------------------------------|
D|--------------------------------------------------------------------|
A|--------------------------------------------------------------------|
E|--------------------------------------------------------------------|
 
e|-----10h12-12/14-14/15--15-14-12-14-15-15b~-17b~------------------17-20b-r20-|
B|-/12--------------------------------------------14~-15~--17-18-20------------|
G|-----------------------------------------------------------------------------|
D|-----------------------------------------------------------------------------|
A|-----------------------------------------------------------------------------|
E|-----------------------------------------------------------------------------|
 
Κιθάρα, συγχορδίες για το τραγούδι

Για να σ' εκδικηθώ

 
47 προβολές
Δυσκολία: μέτρια
Καποτάστο: 0
11 μήνες πριν από kmenadhs
[Κουπλέ]
                D
Για να σε εκδικηθώ, σου σκίζω τις φωτογραφίες
         Bm
κι εσύ όπως και εγώ κομμάτια στις γωνιές και στις πλατείες
                 Em
τα γράμματά σου καίω μέσα στον πυρετό μου
                 A
και σβήνω το όνομά σου μαζί με το δικό μου
 
                 D
Για να σε εκδικηθώ πετάω ενθύμια και δώρα
         Bm
κι εσύ όπως και εγώ θρύψαλα και σκουπίδια τώρα 
                    G  A                 D     
τις ζωγραφιές σου σκίζω τα πόστερ που αγαπούσες   
B                  Em  A              D
και βάφω τις κουρτίνες  στο χρώμα που μισούσες

[Ρεφραίν]
            D                    F#m
Για να γιατρέψω τις ατέλειωτες πληγές
           G                    A
αφού δεν βγήκες από μέσα μου ποτέ
            D                    F#m
Για να γιατρέψω τις ατέλειωτες πληγές
           G                    A
αφού δεν βγήκες από μέσα μου ποτέ
 
[Σόλο]
Solo

[Κουπλέ]
                 E
Για να σε εκδικηθώ πετάω ενθύμια και δώρα
                C#m
κι εσύ όπως και εγώ θρύψαλα και σκουπίδια τώρα 
                    A  B                  E     
τις ζωγραφιές σου σκίζω τα πόστερ που αγαπούσες   
C#                F#m  B                 E
και βάφω τις κουρτίνες στο χρώμα που μισούσες

[Ρεφραίν]
            E                     C#m
Για να γιατρέψω τις ατέλειωτες πληγές
           A                    B
αφού δεν βγήκες από μέσα μου ποτέ
            E                     C#m
Για να γιατρέψω τις ατέλειωτες πληγές
           A                    B
αφού δεν βγήκες από μέσα μου ποτέ

Solo
e|-------------------------------------------------------------------|
B|-------------------------------------------------------------------|
G|-----------------------7P6-6~-------------9~--7h9-9--7h9-9--7/9/7~-|
D|------------4-5-5/7-7~--------7-4-4/9~--7--------------------------|
A|-----4-5-7---------------------------------------------------------|
E|-5-7---------------------------------------------------------------|
 
e|------10-10/9--9/10--10/12------------------12b-12-10---------------|
B|----8----------------------10-12-10---10-12-----------12-10-12-10---|
G|-/7-----------------------------------------------------------------|
D|--------------------------------------------------------------------|
A|--------------------------------------------------------------------|
E|--------------------------------------------------------------------|
 
e|-----10h12-12/14-14/15--15-14-12-14-15-15b~-17b~------------------17-20b-r20-|
B|-/12--------------------------------------------14~-15~--17-18-20------------|
G|-----------------------------------------------------------------------------|
D|-----------------------------------------------------------------------------|
A|-----------------------------------------------------------------------------|
E|-----------------------------------------------------------------------------|
 

Πρόσθεσε ένα σχόλιο

Πληροφορίες

Πρόσθεσε και εσύ συγχορδίες στην βιβλιοθήκη του Tabsy

ΔΗΜΟΣΙΕΥΣΗ