Tabsy
tabsy.gr, συγχορδίες για το τραγούδι

Στη Σμύρνη και στο Αϊβαλί

Ερμηνευτής: Μητροπανος Δημητρης

Μουσική /Στίχοι: Μουτσης Δημος /Ελευθεριου Μανος

  E         A           E
Στη Σμύρνη και στο Αϊβαλί
            A        E
Και σ’ όλη την ανατολή
C#m G#m   A             E
Δεν είχε τύχει ν' ακουστεί τέτοιο κακό   | 2x
 A   E   B7             E
Τέτοιο κακό και να γραφτεί               | 2x
 
F#m
Είδα μαχαίρι και φωτιά
E           B    F#m
 Κι είδα παλά-παλάτια και γυφτιά
E             B
Μα πολιτείες και χωριά
 A       B7   E
να ξεψυχούν πρώτη φορά
 
Solo:   ] 2x
 
   E         C#m      D
e--4-5-7---7-12--12--10-12-10-9-10-12-10-9-10-----
B-------------------------------------------------
G-------------------------------------------------
D-------------------------------------------------
A-------------------------------------------------
E-------------------------------------------------
 
  C#m       B       A      E
e--9-10-9-7-7-9-7-5-5---0--4-5-7--7-9-7-5-5-4-4---
B-------------------------------------------------
G-------------------------------------------------
D-------------------------------------------------
A-------------------------------------------------
E-------------------------------------------------
 
 
Είδα κι αγα-πάτες και ντροπές
Να σβήνουνε σαν αστραπές
Είδα κι ανθρώπους δίχως νου γι' άλλους να κλαιν   | 2x
Κι άλλους να κλαιν και να πονούν                  | 2x
 
Είδα μαχαίρι και φωτιά
Κι είδα παλά-παλάτια και γυφτιά
Μα πολιτείες και χωριά
να ξεψυχούν πρώτη φορά
 
Στη Σμύρνη και στο Αϊβαλί
Και σ’ όλη την ανατολή
 
 
Κιθάρα, συγχορδίες για το τραγούδι

Στη Σμύρνη και στο Αϊβαλί

 
4 προβολές
Δυσκολία: μέτρια
Καποτάστο: 0
πάνω από 1 χρόνο πριν από apostowna
  E         A           E
Στη Σμύρνη και στο Αϊβαλί
            A        E
Και σ’ όλη την ανατολή
C#m G#m   A             E
Δεν είχε τύχει ν' ακουστεί τέτοιο κακό   | 2x
 A   E   B7             E
Τέτοιο κακό και να γραφτεί               | 2x
 
F#m
Είδα μαχαίρι και φωτιά
E           B    F#m
 Κι είδα παλά-παλάτια και γυφτιά
E             B
Μα πολιτείες και χωριά
 A       B7   E
να ξεψυχούν πρώτη φορά
 
Solo:   ] 2x
 
   E         C#m      D
e--4-5-7---7-12--12--10-12-10-9-10-12-10-9-10-----
B-------------------------------------------------
G-------------------------------------------------
D-------------------------------------------------
A-------------------------------------------------
E-------------------------------------------------
 
  C#m       B       A      E
e--9-10-9-7-7-9-7-5-5---0--4-5-7--7-9-7-5-5-4-4---
B-------------------------------------------------
G-------------------------------------------------
D-------------------------------------------------
A-------------------------------------------------
E-------------------------------------------------
 
 
Είδα κι αγα-πάτες και ντροπές
Να σβήνουνε σαν αστραπές
Είδα κι ανθρώπους δίχως νου γι' άλλους να κλαιν   | 2x
Κι άλλους να κλαιν και να πονούν                  | 2x
 
Είδα μαχαίρι και φωτιά
Κι είδα παλά-παλάτια και γυφτιά
Μα πολιτείες και χωριά
να ξεψυχούν πρώτη φορά
 
Στη Σμύρνη και στο Αϊβαλί
Και σ’ όλη την ανατολή
 
 

Πρόσθεσε ένα σχόλιο

Πληροφορίες

Πρόσθεσε και εσύ συγχορδίες στην βιβλιοθήκη του Tabsy

ΔΗΜΟΣΙΕΥΣΗ