Tabsy
tabsy.gr, συγχορδίες για το τραγούδι

Τζέμις Μποντ

Ερμηνευτής: Μητσικωστας Γιωργος

Μουσική Παρατραγουδα

Intro: 
Ε|----3-----3-------3----   ] 2x
Β|------1-3---4-3-1------
 
Αφού παίξουμε το παραπάνω 2 φορές, στην συνέχεια παίζουμε αυτό 4 φορές
 
E|----3-3-3---------------   ] 4x
B|----------1-1-1--4-4-4--
 
Τα 2 παρακάτω tabs τα έγραψα για την κιθάρα
Για να παιχτούν στο μπουζούκι,  απλά ολισθαίνουμε όλες τις νότες 2 θέσεις/τάστα προς τα δεξιά...
 
e|----6-10---8-11---10---8-10-8---6---|---10-11-13-----11-13-15---13---11-13-11----10  |
B|--8---------------------------------|----------------------------------------------  | x2
 
e|--------------------------------------3------------------        |
B|-------3-------4-3------------3-4-6-4---6---4-6-4---3----        |   ] 2x
G|------3--3-----------5-3---------------------------------        |
D|----5----------------------------------------------------        |
 
E|----3-3---3-------------   ] 4x
B|--------1---4-4-3-1-----
 
Gm
Τζέμις Μποντ,  Τζέμις Μποντ
Gm              A# Gm               A# Gm
Τζέμις Μποντ θα γίνω,  για να σε αποκτήσω
Cm                                       A# Cm
κι όλα για 'σένα αγάπή μου εγώ θα τα γκρεμίσω
Gm                A#                Gm
θα γίνω,  θα γίνω για 'σένα Τζέμις Μπόντ   ] 2x

Gm
Τζέμις Μποντ, Τζέμις Μποντ
Gm              A# Gm               A# Gm
Τζέμις Μποντ θα γίνω,  για να σε αποκτήσω
Cm                                     A# Cm
κι αυτούς που σε πειράζουνε εγώ θα καθαρίσω
Gm                A#               Gm
θα γίνω,  θα γίνω για 'σένα Τζέμις Μποντ   ] 2x
 
Gm
Τζέμις Μποντ,  Τζέμις Μποντ
Gm              A# Gm               A# Gm
Τζέμις Μποντ θα γίνω,  για να σε αποκτήσω
Cm                                              A# Cm
να δεις ποιος είμαι κούκλα μου και θα σου τ' αποδείξω
Gm                A#                Gm
θα γίνω,  θα γίνω για 'σένα Τζέμις Μποντ   ] 2x
Κιθάρα, συγχορδίες για το τραγούδι

Τζέμις Μποντ

 
9 προβολές
Δυσκολία: μέτρια
Καποτάστο: 0
12 μήνες πριν από magda99
Intro: 
Ε|----3-----3-------3----   ] 2x
Β|------1-3---4-3-1------
 
Αφού παίξουμε το παραπάνω 2 φορές, στην συνέχεια παίζουμε αυτό 4 φορές
 
E|----3-3-3---------------   ] 4x
B|----------1-1-1--4-4-4--
 
Τα 2 παρακάτω tabs τα έγραψα για την κιθάρα
Για να παιχτούν στο μπουζούκι,  απλά ολισθαίνουμε όλες τις νότες 2 θέσεις/τάστα προς τα δεξιά...
 
e|----6-10---8-11---10---8-10-8---6---|---10-11-13-----11-13-15---13---11-13-11----10  |
B|--8---------------------------------|----------------------------------------------  | x2
 
e|--------------------------------------3------------------        |
B|-------3-------4-3------------3-4-6-4---6---4-6-4---3----        |   ] 2x
G|------3--3-----------5-3---------------------------------        |
D|----5----------------------------------------------------        |
 
E|----3-3---3-------------   ] 4x
B|--------1---4-4-3-1-----
 
Gm
Τζέμις Μποντ,  Τζέμις Μποντ
Gm              A# Gm               A# Gm
Τζέμις Μποντ θα γίνω,  για να σε αποκτήσω
Cm                                       A# Cm
κι όλα για 'σένα αγάπή μου εγώ θα τα γκρεμίσω
Gm                A#                Gm
θα γίνω,  θα γίνω για 'σένα Τζέμις Μπόντ   ] 2x

Gm
Τζέμις Μποντ, Τζέμις Μποντ
Gm              A# Gm               A# Gm
Τζέμις Μποντ θα γίνω,  για να σε αποκτήσω
Cm                                     A# Cm
κι αυτούς που σε πειράζουνε εγώ θα καθαρίσω
Gm                A#               Gm
θα γίνω,  θα γίνω για 'σένα Τζέμις Μποντ   ] 2x
 
Gm
Τζέμις Μποντ,  Τζέμις Μποντ
Gm              A# Gm               A# Gm
Τζέμις Μποντ θα γίνω,  για να σε αποκτήσω
Cm                                              A# Cm
να δεις ποιος είμαι κούκλα μου και θα σου τ' αποδείξω
Gm                A#                Gm
θα γίνω,  θα γίνω για 'σένα Τζέμις Μποντ   ] 2x

Πρόσθεσε ένα σχόλιο

Πληροφορίες

Πρόσθεσε και εσύ συγχορδίες στην βιβλιοθήκη του Tabsy

ΔΗΜΟΣΙΕΥΣΗ