Tabsy
tabsy.gr, συγχορδίες για το τραγούδι

Μαλλιά Σγουρά

Ερμηνευτής: Πανδης Πετρος

Μουσική /Στίχοι: Soloviev-Sedoy Vasily /Κιουσης Κωστας

Dm  Dmadd9   ] 2x
Dm  A#  C  F / Dm  Dm  Gm A  Dm
Dm
 
Dm                 Gm    A     Dm
Μαλλιά σγουρά, μαλλιά κοράκου χρώμα
   Gm                  C     F    A7
που ανέμιζε ο αγέρας στα ζερβά
Dm       A#   C           F    (F E)
σας αγαπούσα πάντοτε και τώρα          | 2x
   Dm                  Gm    A     Dm
η δόλια μου καρδιά στενάζει και πονά   | 2x
 
Dm
 
Πάει καιρός που έβγαινες στους δρόμους
τη σκούφια φόραγες λεβέντικα στραβά
και τα μαλλιά χυτά πάνω στους ώμους
τ' ανέμιζε ο αγέρας στα ζερβά
 
Dm  A#  C  F / Dm  Dm  Gm A  Dm
Dm
 
Θα 'ρθουν καιροί, καιροί ευτυχισμένοι
σκλάβοι δε θα 'ναι τότε οι λαοί
θα ζούμε τότε πια αδερφωμένοι
σε μια ελεύθερη ειρηνική ζωή
 
Dm
 
Εγώ Άη-Στρά-, Άη-Στράτη δε φοβάμαι
είναι κι αυτή μια ελληνική γωνιά
τα μαύρα τα μαλλιά μας κι αν ασπρίσαν
δε μας τρομάζει η βαρυχειμωνιά
 
Dm   ] 4x
 
* Οι (F E) είναι οι νότες Φα, Μι αντίστοιχα
 
e||---1----0------0---||
B||---3----3------2---||
G||---2----2------0---||
D||---0----3------2---||
A||---0----x------0---||
E||---x----x----------||
     Dm  Dmadd9  A7
 
Εισαγωγή   ] 3x
e||---------1--------------0-----||
B||-------3---3---3------3----3--||
G||-----2-------2------2---------||
D||--0--------------3------------||
A||------------------------------||
E||------------------------------||
     Dm             Dmadd9
 
Μελωδία φυσαρμόνικας
e||--------------------13--12------|---------------------------------------------|
B||--------15--15--15----------15--|--13h15p13--------------------------------13-|
G||--14----------------------------|-----------15--14--12--14p12-----12h14-15----|
D||--------------------------------|-----------------------------15--------------|
A||--------------------------------|---------------------------------------------|
E||--------------------------------|---------------------------------------------|
     Dm            A#                  C                    F
 
|----------------17------------|--18--18--17--15--13-----------||
|--15----15--15------------18--|--20--20--18--17--15-----------||
|------------------------------|-------------------------------||
|------------------------------|-------------------------------||
|------------------------------|-------------------------------||
|------------------------------|-------------------------------||
   Dm                             Gm      A       Dm
Κιθάρα, συγχορδίες για το τραγούδι

Μαλλιά Σγουρά

 
14 προβολές
Δυσκολία: μέτρια
Καποτάστο: 0
10 μήνες πριν από kostos
Dm  Dmadd9   ] 2x
Dm  A#  C  F / Dm  Dm  Gm A  Dm
Dm
 
Dm                 Gm    A     Dm
Μαλλιά σγουρά, μαλλιά κοράκου χρώμα
   Gm                  C     F    A7
που ανέμιζε ο αγέρας στα ζερβά
Dm       A#   C           F    (F E)
σας αγαπούσα πάντοτε και τώρα          | 2x
   Dm                  Gm    A     Dm
η δόλια μου καρδιά στενάζει και πονά   | 2x
 
Dm
 
Πάει καιρός που έβγαινες στους δρόμους
τη σκούφια φόραγες λεβέντικα στραβά
και τα μαλλιά χυτά πάνω στους ώμους
τ' ανέμιζε ο αγέρας στα ζερβά
 
Dm  A#  C  F / Dm  Dm  Gm A  Dm
Dm
 
Θα 'ρθουν καιροί, καιροί ευτυχισμένοι
σκλάβοι δε θα 'ναι τότε οι λαοί
θα ζούμε τότε πια αδερφωμένοι
σε μια ελεύθερη ειρηνική ζωή
 
Dm
 
Εγώ Άη-Στρά-, Άη-Στράτη δε φοβάμαι
είναι κι αυτή μια ελληνική γωνιά
τα μαύρα τα μαλλιά μας κι αν ασπρίσαν
δε μας τρομάζει η βαρυχειμωνιά
 
Dm   ] 4x
 
* Οι (F E) είναι οι νότες Φα, Μι αντίστοιχα
 
e||---1----0------0---||
B||---3----3------2---||
G||---2----2------0---||
D||---0----3------2---||
A||---0----x------0---||
E||---x----x----------||
     Dm  Dmadd9  A7
 
Εισαγωγή   ] 3x
e||---------1--------------0-----||
B||-------3---3---3------3----3--||
G||-----2-------2------2---------||
D||--0--------------3------------||
A||------------------------------||
E||------------------------------||
     Dm             Dmadd9
 
Μελωδία φυσαρμόνικας
e||--------------------13--12------|---------------------------------------------|
B||--------15--15--15----------15--|--13h15p13--------------------------------13-|
G||--14----------------------------|-----------15--14--12--14p12-----12h14-15----|
D||--------------------------------|-----------------------------15--------------|
A||--------------------------------|---------------------------------------------|
E||--------------------------------|---------------------------------------------|
     Dm            A#                  C                    F
 
|----------------17------------|--18--18--17--15--13-----------||
|--15----15--15------------18--|--20--20--18--17--15-----------||
|------------------------------|-------------------------------||
|------------------------------|-------------------------------||
|------------------------------|-------------------------------||
|------------------------------|-------------------------------||
   Dm                             Gm      A       Dm

Πρόσθεσε ένα σχόλιο

Πληροφορίες

Πρόσθεσε και εσύ συγχορδίες στην βιβλιοθήκη του Tabsy

ΔΗΜΟΣΙΕΥΣΗ