Tabsy
tabsy.gr, συγχορδίες για το τραγούδι

Χίλια Ποτάμια

Ερμηνευτής: Πασχαλιδης Μιλτιαδης

Μουσική /Στίχοι: Πασχαλιδης Μιλτιαδης /Πασχαλιδης Μιλτιαδης

Capo: 3ο τάστο

Capo: 3

[Εισαγωγή] 2x
   Am                                                      Am
e|---0--------0--------0--------0------------0---------0-----------0.---|
B|-----0--------0--------0--------0--------0---------0---------0--------|
G|-------2--------2--------2--------4----7---------5---------2---2------|
D|----------------------------------------------------------------------|
A|-0--------2--------3--------5--------7---------5---------0------------|
E|--------------------------------------------------------------------0-|
 
Am                           
Με το νερό μετράς το χρόνο
                           F
μέσ’ απ’ τις χούφτες να κυλά
Am
Μα ποια πηγή δείχνει το δρόμο
                        F
που φτάνει ως την αγκαλιά
 
Am
Αιώνες γύρεψα μια λύση
                          Am   Em
να κρύβεται στο αίνιγμά σου
Am
Ανοίγω τ’ ουρανού τη βρύση
                       Am   Em
πρώτη σταγόνα τ’ άγγιγμά σου
  F       G           Am
πρώτη σταγόνα τ’ άγγιγμά σου
 
G                     C
Χίλια ποτάμια θα περάσω
G                         Dm
σε χίλιες θάλασσες  θα βγω
F         G       F  E
Έχω τη δίψα οδηγό
Dm           C                       Am
μόνο απ’ το στόμα σου αν πιω θα ξεδιψάσω
 
Am                              
Με τη φωτιά μετράω το χρόνο
                    F
και με θηράματα φτηνά
Am
Μα ποια πληγή δείχνει το δρόμο
                        F
που φτάνει ως την αγκαλιά
Am
Αιώνες τρέχω να προλάβω
                      F
να τον πετύχω στο φτερό
Am 
Τον έρωτα τον εργολάβο
                  Am  Em
καμένη γη όπου πατώ
F       G         Am
καμένη γη όπου πατώ
 
Χίλια ποτάμια θα περάσω
σε χίλιες θάλασσες  θα βγω
Έχω τη δίψα οδηγό
μόνο απ’ το στόμα σου αν πιω
 
Χίλια ποτάμια θα περάσω
σε χίλιες θάλασσες  θα βγω
Έχω τη δίψα οδηγό
μόνο απ’ το στόμα σου αν πιω

   Am                                                        Am
e|----0--------0--------0--------0------------0---------0.-----------0-----0--|
B|------0--------0--------0--------0--------0---------0.---------0-----0---0--|
G|--------2--------2--------2--------4----7---------5.---------2---2-----2-2--|
D|----------------------------------------------------------------------------|
A|--0--------2--------3--------5--------7---------5.---------0-------------0--|
E|----------------------------------------------------------------------------|
Κιθάρα, συγχορδίες για το τραγούδι

Χίλια Ποτάμια

 
2 προβολές
12 μήνες πριν από basilegrh
Capo: 3

[Εισαγωγή] 2x
   Am                                                      Am
e|---0--------0--------0--------0------------0---------0-----------0.---|
B|-----0--------0--------0--------0--------0---------0---------0--------|
G|-------2--------2--------2--------4----7---------5---------2---2------|
D|----------------------------------------------------------------------|
A|-0--------2--------3--------5--------7---------5---------0------------|
E|--------------------------------------------------------------------0-|
 
Am                           
Με το νερό μετράς το χρόνο
                           F
μέσ’ απ’ τις χούφτες να κυλά
Am
Μα ποια πηγή δείχνει το δρόμο
                        F
που φτάνει ως την αγκαλιά
 
Am
Αιώνες γύρεψα μια λύση
                          Am   Em
να κρύβεται στο αίνιγμά σου
Am
Ανοίγω τ’ ουρανού τη βρύση
                       Am   Em
πρώτη σταγόνα τ’ άγγιγμά σου
  F       G           Am
πρώτη σταγόνα τ’ άγγιγμά σου
 
G                     C
Χίλια ποτάμια θα περάσω
G                         Dm
σε χίλιες θάλασσες  θα βγω
F         G       F  E
Έχω τη δίψα οδηγό
Dm           C                       Am
μόνο απ’ το στόμα σου αν πιω θα ξεδιψάσω
 
Am                              
Με τη φωτιά μετράω το χρόνο
                    F
και με θηράματα φτηνά
Am
Μα ποια πληγή δείχνει το δρόμο
                        F
που φτάνει ως την αγκαλιά
Am
Αιώνες τρέχω να προλάβω
                      F
να τον πετύχω στο φτερό
Am 
Τον έρωτα τον εργολάβο
                  Am  Em
καμένη γη όπου πατώ
F       G         Am
καμένη γη όπου πατώ
 
Χίλια ποτάμια θα περάσω
σε χίλιες θάλασσες  θα βγω
Έχω τη δίψα οδηγό
μόνο απ’ το στόμα σου αν πιω
 
Χίλια ποτάμια θα περάσω
σε χίλιες θάλασσες  θα βγω
Έχω τη δίψα οδηγό
μόνο απ’ το στόμα σου αν πιω

   Am                                                        Am
e|----0--------0--------0--------0------------0---------0.-----------0-----0--|
B|------0--------0--------0--------0--------0---------0.---------0-----0---0--|
G|--------2--------2--------2--------4----7---------5.---------2---2-----2-2--|
D|----------------------------------------------------------------------------|
A|--0--------2--------3--------5--------7---------5.---------0-------------0--|
E|----------------------------------------------------------------------------|

Πρόσθεσε ένα σχόλιο

Πληροφορίες

Πρόσθεσε και εσύ συγχορδίες στην βιβλιοθήκη του Tabsy

ΔΗΜΟΣΙΕΥΣΗ