Tabsy
tabsy.gr, συγχορδίες για το τραγούδι

Γιατί έπαψες αγάπη να θυμίζεις

Ερμηνευτής: Πυξ Λαξ

Μουσική /Στίχοι: Πλιατσικας Φιλιππος /Πλιατσικας Φιλιππος

Capo: 3ο τάστο

Capo: 3

[Μελωδία]
    C            D              Em
e|------0-----|----------0----|---------0--0-|
B|---------1--|--------3---0--|-----0---0--0-|
G|------------|------0--------|---------0--0-|
D|----2-------|----4----------|---2----------|
A|--3---------|--5------------|--------------|
E|------------|---------------|-0------------|

[Εισαγωγή] x4
C D Em
 
[Κουπλέ]
     C     D        Em
Ο καφές σου έχει κρυώσει
        C             D        Bm
και το ράδιο κλειστό τώρα για μέρες
      C   D          Em
σε θυμάμαι είχες ξαπλώσει
         C             D          Em
στου μονού μου κρεβατιού τις καλημέρες

[Ρεφραίν]
         C D         Bm
Το ξέρω πως δεν το διάλεξα
   C        D               Em
αν έπρεπε τη σκέψη μου να ορίζεις
     C  D       Bm
μα ακόμα δεν κατάλαβα
      C        D         Em
γιατί έπαψες αγάπη να θυμίζεις

[Γέφυρα]
   C           D             Em
e|------------------------------------------------------|
B|------------------------------------------------------|
G|------------------------------------------------------|
D|-------5----------5----------5----7-7--5-5------------|
A|--5-7-----5-5-5-7----5-5-5-7---------------7-7--5-5---|
Ε|----------------------------------------------------7-| 

[Κουπλέ]
              C  D          Em
Υπάρχουν το νιώθω υγρά μονοπάτια
             C         D          Bm
υπάρχουν κομμάτια από φως στη σιωπή
               C   D               Em
τραγούδια που γίναν με δάκρυα στα μάτια
               C       D        Em
τραγούδια που γίναν απλά η αφορμή

[Ρεφραίν] x2
         C D         Bm
Το ξέρω πως δεν το διάλεξα
   C        D               Em
αν έπρεπε τη σκέψη μου να ορίζεις
     C  D       Bm
μα ακόμα δεν κατάλαβα
      C        D         Em
γιατί έπαψες αγάπη να θυμίζεις

[Γέφυρα]
   C           D             Em
e|------------------------------------------------------|
B|------------------------------------------------------|
G|------------------------------------------------------|
D|-------5----------5----------5----7-7--5-5------------|
A|--5-7-----5-5-5-7----5-5-5-7---------------7-7--5-5---|
Ε|----------------------------------------------------7-|
Κιθάρα, συγχορδίες για το τραγούδι

Γιατί έπαψες αγάπη να θυμίζεις

 
1193 προβολές
Δυσκολία: μέτρια
Καποτάστο: 3
περίπου 2 χρόνια πριν από efraimoy
Capo: 3

[Μελωδία]
    C            D              Em
e|------0-----|----------0----|---------0--0-|
B|---------1--|--------3---0--|-----0---0--0-|
G|------------|------0--------|---------0--0-|
D|----2-------|----4----------|---2----------|
A|--3---------|--5------------|--------------|
E|------------|---------------|-0------------|

[Εισαγωγή] x4
C D Em
 
[Κουπλέ]
     C     D        Em
Ο καφές σου έχει κρυώσει
        C             D        Bm
και το ράδιο κλειστό τώρα για μέρες
      C   D          Em
σε θυμάμαι είχες ξαπλώσει
         C             D          Em
στου μονού μου κρεβατιού τις καλημέρες

[Ρεφραίν]
         C D         Bm
Το ξέρω πως δεν το διάλεξα
   C        D               Em
αν έπρεπε τη σκέψη μου να ορίζεις
     C  D       Bm
μα ακόμα δεν κατάλαβα
      C        D         Em
γιατί έπαψες αγάπη να θυμίζεις

[Γέφυρα]
   C           D             Em
e|------------------------------------------------------|
B|------------------------------------------------------|
G|------------------------------------------------------|
D|-------5----------5----------5----7-7--5-5------------|
A|--5-7-----5-5-5-7----5-5-5-7---------------7-7--5-5---|
Ε|----------------------------------------------------7-| 

[Κουπλέ]
              C  D          Em
Υπάρχουν το νιώθω υγρά μονοπάτια
             C         D          Bm
υπάρχουν κομμάτια από φως στη σιωπή
               C   D               Em
τραγούδια που γίναν με δάκρυα στα μάτια
               C       D        Em
τραγούδια που γίναν απλά η αφορμή

[Ρεφραίν] x2
         C D         Bm
Το ξέρω πως δεν το διάλεξα
   C        D               Em
αν έπρεπε τη σκέψη μου να ορίζεις
     C  D       Bm
μα ακόμα δεν κατάλαβα
      C        D         Em
γιατί έπαψες αγάπη να θυμίζεις

[Γέφυρα]
   C           D             Em
e|------------------------------------------------------|
B|------------------------------------------------------|
G|------------------------------------------------------|
D|-------5----------5----------5----7-7--5-5------------|
A|--5-7-----5-5-5-7----5-5-5-7---------------7-7--5-5---|
Ε|----------------------------------------------------7-|
Άλλες εκδόσεις:

Πρόσθεσε ένα σχόλιο

Πληροφορίες

Πρόσθεσε και εσύ συγχορδίες στην βιβλιοθήκη του Tabsy

ΔΗΜΟΣΙΕΥΣΗ