Tabsy
tabsy.gr, συγχορδίες για το τραγούδι
Intro:
F#m  Bm  Em  F#m
 
e|----------------------------------------------------------------------------------------------11-12--
B|---14-12-14-------------------------12-13-14-15--14-15-12------------12-13-14-15---------------------
G|---------------14-12-11--11-12-14----------------------------14-12--14-------------------------------
 
e|---11-12-11-12-14-15-17-21-17-15-14------14-15-12-14---12-------------------------------------
B|-------------------------------------------------------------------15--14-15-12-14-10-12--------------
G|-----------------------------------------------------------------------------------------------12-11--
 
ή
 
e|---11-12-11-12-14-17-15-14------------------14-15-12-14---12-------------------------------------
B|-------------------------------------------------------------------15--14-15-12-14-10-12--------------
G|-----------------------------------------------------------------------------------------------12-11--
 
       F#m                  Bm
Συγχαρητήρια για την επιλογή σου
        Em                                       F#m
Δεν το περίμενα πως θα ‘τανε αυτός ο ανταγωνιστής μου
Συγχαρητήρια αφού έτσι το θέλεις
Να πας μαζί του και να είσαι μια ζωή ευτυχισμένη
 
           Bm                          A
Όμως πριν φύγεις θα σου πω κάτι που έμαθα γι’ αυτόν
           G                   F#
Κάτι που πρέπει οπωσδήποτε να ξέρεις
Στο μέλλον να μην εκπλαγείς για ότι μάθεις κι ότι δεις
Εγώ στο λέω και ‘συ κάνε ότι θέλεις
 
        Bm                             A
Τον άντρα που αγάπησες τον φωνάζουνε μπέμπα
               G   F#       Bm
Στα παράξενα στέκια που κυκλοφορεί
Τον άντρα που αγάπησες τον φωνάζουνε μπέμπα
Στα δικά του τα στέκια θα το μάθεις και συ
 
Δικαίωμα σου να κάνεις ότι θέλεις
Αφού αγάπησες αυτόν, τρέχα τι περιμένεις
Δεν το περίμενα μαζί μου πως θα παίξεις
Και για μια μπέμπα ότι φτιάξαμε μαζί να καταστρέψεις
 
Όμως πριν φύγεις θα σου πω...
 
Τον άντρα που αγάπησες τον φωνάζουνε μπέμπα...
 
Κιθάρα, συγχορδίες για το τραγούδι

Μπέμπα

 
10 προβολές
Δυσκολία: μέτρια
Καποτάστο: 0
περίπου 1 χρόνο πριν από apostowna
Intro:
F#m  Bm  Em  F#m
 
e|----------------------------------------------------------------------------------------------11-12--
B|---14-12-14-------------------------12-13-14-15--14-15-12------------12-13-14-15---------------------
G|---------------14-12-11--11-12-14----------------------------14-12--14-------------------------------
 
e|---11-12-11-12-14-15-17-21-17-15-14------14-15-12-14---12-------------------------------------
B|-------------------------------------------------------------------15--14-15-12-14-10-12--------------
G|-----------------------------------------------------------------------------------------------12-11--
 
ή
 
e|---11-12-11-12-14-17-15-14------------------14-15-12-14---12-------------------------------------
B|-------------------------------------------------------------------15--14-15-12-14-10-12--------------
G|-----------------------------------------------------------------------------------------------12-11--
 
       F#m                  Bm
Συγχαρητήρια για την επιλογή σου
        Em                                       F#m
Δεν το περίμενα πως θα ‘τανε αυτός ο ανταγωνιστής μου
Συγχαρητήρια αφού έτσι το θέλεις
Να πας μαζί του και να είσαι μια ζωή ευτυχισμένη
 
           Bm                          A
Όμως πριν φύγεις θα σου πω κάτι που έμαθα γι’ αυτόν
           G                   F#
Κάτι που πρέπει οπωσδήποτε να ξέρεις
Στο μέλλον να μην εκπλαγείς για ότι μάθεις κι ότι δεις
Εγώ στο λέω και ‘συ κάνε ότι θέλεις
 
        Bm                             A
Τον άντρα που αγάπησες τον φωνάζουνε μπέμπα
               G   F#       Bm
Στα παράξενα στέκια που κυκλοφορεί
Τον άντρα που αγάπησες τον φωνάζουνε μπέμπα
Στα δικά του τα στέκια θα το μάθεις και συ
 
Δικαίωμα σου να κάνεις ότι θέλεις
Αφού αγάπησες αυτόν, τρέχα τι περιμένεις
Δεν το περίμενα μαζί μου πως θα παίξεις
Και για μια μπέμπα ότι φτιάξαμε μαζί να καταστρέψεις
 
Όμως πριν φύγεις θα σου πω...
 
Τον άντρα που αγάπησες τον φωνάζουνε μπέμπα...
 

Πρόσθεσε ένα σχόλιο

Πληροφορίες

Πρόσθεσε και εσύ συγχορδίες στην βιβλιοθήκη του Tabsy

ΔΗΜΟΣΙΕΥΣΗ