Κιθάρα, συγχορδίες για το τραγούδι

Κιούμπρικ

 
4 προβολές
Δυσκολία: μέτρια
Καποτάστο: 0
8 μήνες πριν από kanelou
Main Riff 
e-----------------------------------------------------
b-----------------------------------------------------
g-----------------------------------------------------
d--------6-----------6---------------6-----------6----
a-----------6-----------6~--------------6----------6~-
E--4-4-------- 4-4-4------------4 4--------4-4-4------
 
e------------------------------------------------------
b------------------------------------------------------
g--------6-----------6---------------6-----------6/98-
d----------6-----------6~--------------6---------4/76-
a---4-4--------4-4-4------------4-4--------4-4---------
E------------------------------------------------------
 
Ακουστικό riff - Συγχορδίες
 
   G#   G#m  A ()  E
e--4-----4----5----0--
b--4-----5----5----0--
g--5-----6----6----1--
d--6-----6----7----2--
a--6-----4----7----2--
E--4----------5----0--
 

Πρόσθεσε ένα σχόλιο

Πληροφορίες

Πρόσθεσε και εσύ συγχορδίες στην βιβλιοθήκη του Tabsy

ΔΗΜΟΣΙΕΥΣΗ