Tabsy
tabsy.gr, συγχορδίες για το τραγούδι

Κι Όλα Μοιάζουν

Ερμηνευτής: Stavento

Μουσική /Στίχοι: Μεθυσος /Mageda

Intro
 
Ε-----------------------------------------------------------------------0------
Β------------------------------------------------------------3-----------------
G-----0--0h2-4p0-------0---------0---------0----0h2-4p0------------------------
D---2--2-------------2---2-----0---0-----2---2-------------2----2----0----0----
A-0---------------3---------2----------0-----------------3---------2-----------
E------------------------------------------------------------------------------
 
    Am       C    D
Αγαπάω ένα αγόρι
          Am        C   D
που ’χει μάτια μαγικά
τι κι αν είναι μακριά μου
έρχεται στα όνειρά μου
και γλυκά μου τραγουδά
 
Solo
Ε------------------------------------------------------------------------------
Β---------13------------------------------------------------10-----------------
G-14 12 14---14---14 12 14 14--------12 9-----11------11 12--------------------
D---------------------------------10-------12------12--------------------------
A------------------------------------------------------------------------------
E------------------------------------------------------------------------------
 
Κι αγαπάω τη ζωή μου
κι έτσι νοιώθω τυχερή
γιατί δίνει στη ψυχή μου
την ανάσα, την πνοή
 
Am             C      D           Am
    Και όλα μοιάζουν τότε με γιορτή
όλα θυμίζουν τότε τη χαρά
όλα μου μοιάζουν μ’ όμορφη γιορτή
που με αγγίζει και με γλυκοξυπνά
 
Αγαπάω ένα κορίτσι
που ‘χει μάτια μαγικά
τι κι αν είναι μακριά μου
έρχεται στα όνειρά
κι όλα μοιάζουν γιορτινά
 
Κι αγαπώ όλο τον κόσμο
όταν μου χαμογελά
δίνει χρώμα στη ζωή μου
όταν λέει πως μ’ αγαπά
 
Και όλα μοιάζουν τότε με γιορτή
όλα θυμίζουν τότε τη χαρά
όλα μου μοιάζουν μ’ όμορφη γιορτή
που με αγγίζει και με γλυκοξυπνά
 
Σ’ αγαπάω και μου φτάνει
που η σκέψη σου είναι εδώ
τι κι αν είσαι μακριά μου
ζω για να σε καρτερώ
Κιθάρα, συγχορδίες για το τραγούδι

Κι Όλα Μοιάζουν

 
8 προβολές
Δυσκολία: μέτρια
Καποτάστο: 0
περίπου 1 χρόνο πριν από magda99
Intro
 
Ε-----------------------------------------------------------------------0------
Β------------------------------------------------------------3-----------------
G-----0--0h2-4p0-------0---------0---------0----0h2-4p0------------------------
D---2--2-------------2---2-----0---0-----2---2-------------2----2----0----0----
A-0---------------3---------2----------0-----------------3---------2-----------
E------------------------------------------------------------------------------
 
    Am       C    D
Αγαπάω ένα αγόρι
          Am        C   D
που ’χει μάτια μαγικά
τι κι αν είναι μακριά μου
έρχεται στα όνειρά μου
και γλυκά μου τραγουδά
 
Solo
Ε------------------------------------------------------------------------------
Β---------13------------------------------------------------10-----------------
G-14 12 14---14---14 12 14 14--------12 9-----11------11 12--------------------
D---------------------------------10-------12------12--------------------------
A------------------------------------------------------------------------------
E------------------------------------------------------------------------------
 
Κι αγαπάω τη ζωή μου
κι έτσι νοιώθω τυχερή
γιατί δίνει στη ψυχή μου
την ανάσα, την πνοή
 
Am             C      D           Am
    Και όλα μοιάζουν τότε με γιορτή
όλα θυμίζουν τότε τη χαρά
όλα μου μοιάζουν μ’ όμορφη γιορτή
που με αγγίζει και με γλυκοξυπνά
 
Αγαπάω ένα κορίτσι
που ‘χει μάτια μαγικά
τι κι αν είναι μακριά μου
έρχεται στα όνειρά
κι όλα μοιάζουν γιορτινά
 
Κι αγαπώ όλο τον κόσμο
όταν μου χαμογελά
δίνει χρώμα στη ζωή μου
όταν λέει πως μ’ αγαπά
 
Και όλα μοιάζουν τότε με γιορτή
όλα θυμίζουν τότε τη χαρά
όλα μου μοιάζουν μ’ όμορφη γιορτή
που με αγγίζει και με γλυκοξυπνά
 
Σ’ αγαπάω και μου φτάνει
που η σκέψη σου είναι εδώ
τι κι αν είσαι μακριά μου
ζω για να σε καρτερώ

Πρόσθεσε ένα σχόλιο

Πληροφορίες

Πρόσθεσε και εσύ συγχορδίες στην βιβλιοθήκη του Tabsy

ΔΗΜΟΣΙΕΥΣΗ