Tabsy
tabsy.gr, συγχορδίες για το τραγούδι

Σοφία

Ερμηνευτής: Τσαλικης Γιωργος

Μουσική /Στίχοι: Μηλιωτακης Κωστας /Φαλαρας Πανος

[Εισαγωγή]
Bm G A  x8
 
     Bm          G           A
e|------------------------------------------------------|
B|------------------------------------------------------|
G|------------------------------------------------------|
D|------------------------------------------------------|
A|-------5--7-------5--7-------5--7----5--4-----2--0----|
E|----7----------3-----------5--------------------------|   ] 4x
 

[Synth] 
      Bm        G          A
e|------------------------------------------------------|
B|------------------------------------------------------|
G|------7--9------7--9-------7--9---7--6----------------|
D|----9---------5----------7-----------------9--7-------|
A|------------------------------------------------------|
E|------------------------------------------------------|   ] 4x
 
Bm              A
  Η πόλη νυσταγμένη κι ήσυχη
Em                    G    A             Bm      A
  και κάποιος τρέχει να ξεφύγει απ' τη σκιά του
Bm               A
Μα νιώθω την ψυχή ανήσυχη
Em                  G     A          Bm
  και χάνομαι μες στο σκοτάδι της ασφάλτου
 
   G                   A
Κι όλο θα πως θα φύγω να ξεφύγω
G                                  A                   A
απ' της νύχτας τον κλοιό, από του πάθους σου το μακελειό
 
[Ρεφραίν]
                 Bm G A
Μα όπως πάντα μένω
                      Bm G A
σαν μια παλιά φωτογραφία
                Bm G A
εδώ και περιμένω
                          Bm      G    A
να μπεις μες στη δική μου τη φιλοσοφία
                  Bm G A
Μα όπως πάντα μένω
                      Bm G A
σαν μια παλιά φωτογραφία
                  Bm G A
σαν σώμα υποταγμένο
                    A
να φυλακίζομαι στο πάθος σου
            A
στο πάθος σου
 
[Intro]
Bm  G  A   ] 4x
 
Τα όνειρα γερνούν παράλυτα
περιπλανιέμαι σε μια άδεια παραλία
Και μέσα μου πολλά και άλυτα
προβλήματα και μια κρυφή μελαγχολία
 
Κι όλο θα πως θα φύγω να ξεφύγω
απ' της νύχτας τον κλοιό από του πάθους σου το μακελειό
 
[Ρεφραίν]
                 Bm G A
Μα όπως πάντα μένω
                      Bm G A
σαν μια παλιά φωτογραφία
                Bm G A
εδώ και περιμένω
                          Bm      G    A
να μπεις μες στη δική μου τη φιλοσοφία
                  Bm G A
Μα όπως πάντα μένω
                      Bm G A
σαν μια παλιά φωτογραφία
                  Bm G A
σαν σώμα υποταγμένο
                    A
να φυλακίζομαι στο πάθος σου
            A
στο πάθος σου
 
Solo:
Em  G  A   ] 2x
 
Bridge:
Bm  D  E   ] 4x

[Ρεφραίν]
                 Bm G A
Μα όπως πάντα μένω
                      Bm G A
σαν μια παλιά φωτογραφία
                Bm G A
εδώ και περιμένω
                          Bm      G    A
να μπεις μες στη δική μου τη φιλοσοφία
                  Bm G A
Μα όπως πάντα μένω
                      Bm G A
σαν μια παλιά φωτογραφία
                  Bm G A
σαν σώμα υποταγμένο
                    A
να φυλακίζομαι στο πάθος σου
            A
στο πάθος σου
Κιθάρα, συγχορδίες για το τραγούδι

Σοφία

 
4 προβολές
Δυσκολία: μέτρια
Καποτάστο: 0
11 μήνες πριν από koskleas
[Εισαγωγή]
Bm G A  x8
 
     Bm          G           A
e|------------------------------------------------------|
B|------------------------------------------------------|
G|------------------------------------------------------|
D|------------------------------------------------------|
A|-------5--7-------5--7-------5--7----5--4-----2--0----|
E|----7----------3-----------5--------------------------|   ] 4x
 

[Synth] 
      Bm        G          A
e|------------------------------------------------------|
B|------------------------------------------------------|
G|------7--9------7--9-------7--9---7--6----------------|
D|----9---------5----------7-----------------9--7-------|
A|------------------------------------------------------|
E|------------------------------------------------------|   ] 4x
 
Bm              A
  Η πόλη νυσταγμένη κι ήσυχη
Em                    G    A             Bm      A
  και κάποιος τρέχει να ξεφύγει απ' τη σκιά του
Bm               A
Μα νιώθω την ψυχή ανήσυχη
Em                  G     A          Bm
  και χάνομαι μες στο σκοτάδι της ασφάλτου
 
   G                   A
Κι όλο θα πως θα φύγω να ξεφύγω
G                                  A                   A
απ' της νύχτας τον κλοιό, από του πάθους σου το μακελειό
 
[Ρεφραίν]
                 Bm G A
Μα όπως πάντα μένω
                      Bm G A
σαν μια παλιά φωτογραφία
                Bm G A
εδώ και περιμένω
                          Bm      G    A
να μπεις μες στη δική μου τη φιλοσοφία
                  Bm G A
Μα όπως πάντα μένω
                      Bm G A
σαν μια παλιά φωτογραφία
                  Bm G A
σαν σώμα υποταγμένο
                    A
να φυλακίζομαι στο πάθος σου
            A
στο πάθος σου
 
[Intro]
Bm  G  A   ] 4x
 
Τα όνειρα γερνούν παράλυτα
περιπλανιέμαι σε μια άδεια παραλία
Και μέσα μου πολλά και άλυτα
προβλήματα και μια κρυφή μελαγχολία
 
Κι όλο θα πως θα φύγω να ξεφύγω
απ' της νύχτας τον κλοιό από του πάθους σου το μακελειό
 
[Ρεφραίν]
                 Bm G A
Μα όπως πάντα μένω
                      Bm G A
σαν μια παλιά φωτογραφία
                Bm G A
εδώ και περιμένω
                          Bm      G    A
να μπεις μες στη δική μου τη φιλοσοφία
                  Bm G A
Μα όπως πάντα μένω
                      Bm G A
σαν μια παλιά φωτογραφία
                  Bm G A
σαν σώμα υποταγμένο
                    A
να φυλακίζομαι στο πάθος σου
            A
στο πάθος σου
 
Solo:
Em  G  A   ] 2x
 
Bridge:
Bm  D  E   ] 4x

[Ρεφραίν]
                 Bm G A
Μα όπως πάντα μένω
                      Bm G A
σαν μια παλιά φωτογραφία
                Bm G A
εδώ και περιμένω
                          Bm      G    A
να μπεις μες στη δική μου τη φιλοσοφία
                  Bm G A
Μα όπως πάντα μένω
                      Bm G A
σαν μια παλιά φωτογραφία
                  Bm G A
σαν σώμα υποταγμένο
                    A
να φυλακίζομαι στο πάθος σου
            A
στο πάθος σου

Πρόσθεσε ένα σχόλιο

Πληροφορίες

Πρόσθεσε και εσύ συγχορδίες στην βιβλιοθήκη του Tabsy

ΔΗΜΟΣΙΕΥΣΗ